Song name
# A B C D E F G H I J K L M N O P Q R S T U V W X Y Z

Pod - Why Wait tab

-------------------------------------------------------------------------------
			     Why Wait? - POD
-------------------------------------------------------------------------------
Tabbed by:Rather_dashing
Email:ewiniger@gmail.com


verse and intro
e|------3-------5------------------------------------------------------------|
B|------5-------6------------------------------------------------------------|
G|------4--4X---7--4X--------------------------------------------------------|
D|---------------------------------------------------------------------------|
A|---------------------------------------------------------------------------|
E|---------------------------------------------------------------------------|
Pre chorus
e|-----3---------------------------------------------------------------------|
B|-----5---------------------------------------------------------------------|
G|-----4--over-and-over------------------------------------------------------|
D|---------------------------------------------------------------------------|
A|---------------------------------------------------------------------------|
E|---------------------------------------------------------------------------|

If you have the chorus Email me
Tap to rate this tab
# A B C D E F G H I J K L M N O P Q R S T U V W X Y Z