Guitaretab - guitar tabs
Song name
# A B C D E F G H I J K L M N O P Q R S T U V W X Y Z
Home / P / Pod / Lights Out tab

Pod - Lights Out tab

Guitar 1 (Tuning Drop D: D A D G B E)
Guitar 2 (7 String Guitar Drop D: A E A D G B E)

Intro:
E------------------------              -------------------|
B------------------------              -------------------|
G------------------------              -------------------|
D--2-0-2---0-2-0-2-5-0-0-  Last Time:  --2-0-2--0-77-7-5-|
A--2-0-2---0-2-0-2-5-0-0-              --2-0-2--0-77-7-5-|
D--2-0-2---0-2-0-2-5-0-0-              --2-0-2--0-77-7-5-|

Verse:
E-------------------------           --------------------            
B-------------------------           --------------------            
G-------------------------           --------------------            
D------------5---7---7-8--           ----------5---------            
A--5/7777777-77--77------ 4th Time: 5/7777777---5555555- 
D-------------------------           --------------------  
          
Last Time:
----------|
----------|
----------|
-0-77-7-5-|
-0-77-7-5-|
-0-77-7-5-|

Pre-Chorus:
E---------------------------------|
B---------------------------------|
G---------------------------------|      Check strumming!
D-------------------0-77-7-5------|
A1012-10-13--1012--0-77-7-5------|
D-------------------0-77-7-5------|

Chorus:
E--------------------------              -------------------|
B--------------------------              -------------------|
G--------------------------              -------------------|
D--2-0-2-xx--0-2-0-2-5-0-0-  Last Time:  --2-0-2--0-77-7-5-|
A--2-0-2-xx--0-2-0-2-5-0-0-              --2-0-2--0-77-7-5-|
D--2-0-2-xx--0-2-0-2-5-0-0-              --2-0-2--0-77-7-5-|

[ Tab from: http://www.guitaretab.com/p/pod/141142.html ]
Verse:
E-------------------------           --------------------            
B-------------------------           --------------------            
G-------------------------           --------------------            
D------------5---7---7-8--           ----------5---------            
A--5/7777777-77--77------ 4th Time: 5/7777777---5555555- 
D-------------------------           --------------------  
          
Last Time:
----------|
----------|
----------|
-0-77-7-5-|
-0-77-7-5-|
-0-77-7-5-|

Pre-Chorus:
E---------------------------------|
B---------------------------------|
G---------------------------------|      Check strumming!
D-------------------0-77-7-5------|
A1012-10-13--1012--0-77-7-5------|
D-------------------0-77-7-5------|

Chorus:
E--------------------------              -------------------|
B--------------------------              -------------------|
G--------------------------              -------------------|
D--2-0-2-xx--0-2-0-2-5-0-0-  Last Time:  --2-0-2--0-77-7-5-|   2x
A--2-0-2-xx--0-2-0-2-5-0-0-              --2-0-2--0-77-7-5-|
D--2-0-2-xx--0-2-0-2-5-0-0-              --2-0-2--0-77-7-5-|


Bridge:
E-------------------  -------  --------------------------------|
B-0-0-0-0-0-0-0-0--  0-0-0-0  0--0--00---0-0--0-0--0--0-0-|
G-7/9-9/7-7/9-9/7--  7h9-7h9  19h21-19h21-21-21-21-21-21-21-21|  Guitar 1
D-------------------  -------  --------------------------------|
A-------------------  -------  --------------------------------|
D-------------------  -------  --------------------------------|  

B-------------------------  --------------------|
G-------------------------  --------------------|
D-------------------------  --------------------|  Guitar 2
A-----------------------------------------------|
E-------------------------  --------------------|
A-17h19-17h19-17h19-17h19-  -7-9-00-79-00--000--|  

Last Time:
----------|
----------|
----------|
-0-77-7-5-|  Guitar 1
-0-77-7-5-|
-0-77-7-5-|

Chorus:
E--------------------------              -------------------|
B--------------------------              -------------------|
G--------------------------              -------------------|
D--2-0-2-xx--0-2-0-2-5-0-0-  Last Time:  --2-0-2--0-77-7-5-|   2x
A--2-0-2-xx--0-2-0-2-5-0-0-              --2-0-2--0-77-7-5-|
D--2-0-2-xx--0-2-0-2-5-0-0-              --2-0-2--0-77-7-5-|
Related for Lights Out tab