Song name
# A B C D E F G H I J K L M N O P Q R S T U V W X Y Z

Pod - Addicted tab

This is like my first tab so were we go.
This is a song by P.O.D. called Addicted
its drop C tuning


 Tuning:C,G,C,F,A,D

     *Intro*            (PLAY THIS WHOLE THINGS TWICE)
 D|------------------------------------------------------------------------|
 A|------------------------------------------------------------------------|
 F|------------------------------------------------------------------------|
 C|-1-1-xxx-1-1-xxx-1-1-xxx-1-1-xxx-1-1-xxx-1-1-xxx-1-1-xxx-1-xxx----------|
 G|-1-1-xxx-1-1-xxx-1-1-xxx-1-1-xxx-1-1-xxx-1-1-xxx-1-1-xxx-1-xxx----------|
 C|-1-1-xxx-1-1-xxx-1-1-xxx-1-1-xxx-1-1-xxx-1-1-xxx-1-1-xxx-1-xxx----------|


 D|------------------------------------------------------------------------|
 A|------------------------------------------------------------------------|
 F|------------------------------------------------------------------------|
 C|-8--6--4--0-0-xxx-0-0-xxx-0-0-xxx-0-0-xxx--8--6--1----------------------|
 G|-8--6--4--0-0-xxx-0-0-xxx-0-0-xxx-0-0-xxx--8--6--1----------------------|
 C|-8--6--4--0-0-xxx-0-0-xxx-0-0-xxx-0-0-xxx--8--6--1----------------------|



     *Chorus*          x4                        x2                       x2
 D|------------------------------------------------------------------------|
 A|------------------------------------------------------------------------|
 F|------------------------------------------------------------------------|
 C|-1-1--333-444-666-88-6----8-8--333-444-666-88-6----0-0--333-444-666-88-6|
 G|-1-1--333-444-666-88-6----8-8--333-444-666-88-6----0-0--333-444-666-88-6|
 C|-1-1--333-444-666-88-6----8-8--333-444-666-88-6----0-0--333-444-666-88-6|


          x6               x4             (PLAY TWICE)
 D|------------------------------------------------------------------------|
 A|------------------------------------------------------------------------|
 F|------------------------------------------------------------------------|
 C|-1-1-xxx--8--6--4--0-0-xxx---8--6--1------------------------------------|
 G|-1-1-xxx--8--6--4--0-0-xxx---8--6--1------------------------------------|
 C|-1-1-xxx--8--6--4--0-0-xxx---8--6--1------------------------------------|


    (NOW PLAY THE CHORUS TWICE)   


 D|------------------------------------------------------------------------|
 A|------------------------------------------------------------------------|
 F|------------------------------------------------------------------------|
 C|----------4-3-----------4-3------------4-3------------4-3---------------|
 G|-6--4-6-4------6--4-6-4------6--4-6-4-------6--4-6-4--------------------|
 C|------------------------------------------------------------------------|

   
                                                         x2
 D|------------------------------------------------------------------------|
 A|------------------------------------------------------------------------|
 F|------------------------------------------------------------------------|
 C|-3--15-15-15-15--15-13--3--15-15-15-15-15---------15--------------------|
 G|-3--15-15-15-15--15-13--3--15-15-15-15-15---------15--------------------|
 C|-3--15-15-15-15--15-13--3--15-15-15-15-15--11h13--15--------------------|

                        (SORRY GUYS AND GIRLS I COULDN'T FIGURE
                          THE SOLO PART......IM WEAK)

   choras two times then 

    *Outro*    x4
 D|------------------------------------------------------------------------|
 A|------------------------------------------------------------------------|
 F|------------------------------------------------------------------------|
 C|-1-1-xxx----------------------------------------------------------------|
 G|-1-1-xxx----------------------------------------------------------------|
 C|-1-1-xxx----------------------------------------------------------------|

Tap to rate this tab
# A B C D E F G H I J K L M N O P Q R S T U V W X Y Z