Song name
# A B C D E F G H I J K L M N O P Q R S T U V W X Y Z

Pod - Satellite tab

P.O.D. - Satellite tabbed by Vincent508

Tuning: Drop D

E
B
G
D
A
D

--------------

riff 1A(verse/intro riff), distorted guitar

|----------------------------------------------------|
|----------------------------------------------------|
|------------5--5--5-----------5--5--5--------5------|
|---7--7--7--7--7--7--7--7--7--7--7--7--7--7--7------|
|---5--5--5-----------5--5--5-----------5--5---------|
|------------------------------------------------5---|
PM:|-------|         |-------|         |-------------|
**PM = palm mute

|----------------------------------------------------|
|----------------------------------------------------|
|----------------------------------------------------|
|------------7--7--7-----------7--7--7--------7--7---|
|---8--8--8--8--8--8--8--8--8--8--8--8--8--8--8--8---|
|---8--8--8-----------8--8--8-----------8--8---------|
PM:|-------|         |-------|         |-------------|

|----------------------------------------------------|
|----------------------------------------------------|
|----------------------------------------------------|
|------------7--7--7-----------7--7--7--------7------|
|---5--5--5--8--8--8--5--5--5--8--8--8--5--5--8------|
|---5--5--5-----------5--5--5-----------5--5-----5---|
PM:|-------|         |-------|         |-------------|


                              13
            |----------------------------------------|
|----------------------------------------------------|
|----------------------------------------------------|
|----------------------------------------------------|
|------------7--7--7--7--7--7--7--7--7--7--7--7--7---|
|---8--8--8--8--8--8--8--8--8--8--8--8--8--8--8--8---|
|---8--8--8--8--8--8--8--8--8--8--8--8--8--8--8--8---|
PM:|-------------------------------------------------|

**NOTE: The line directly above is only played going into the chorus, in the middle of 
verse it's replaced with the line below.

|----------------------------------------------------|
|----------------------------------------------------|
|----------------------------------------------------|
|------------7--7--7-----------7--7--7--------7------|
|---8--8--8--8--8--8--8--8--8--8--8--8--8--8--8------|
|---8--8--8-----------8--8--8-----------8--8-----8---|
PM:|-------|         |-------|         |-------------|

riff 1B(chorus riff), distorted guitar

|---------------------------------------------------------------------------------------|
|---------------------------------------------------------------------------------------|
|---------------------------------------------------------------------------------------|
|---5---(5)s7----7---7---7-----------5---(5)s7-----------7----7-------7-------7---------|
|---3---(3)s5----5---5---5-----------3---(3)s5-----------5----5-------5-------5---------|
|---------------------------------------------------------------------------------------|

|-------------------------------------------8---8---8---8----------------|
|-----------------------8---8---8---8---8-------------------8---8--------|
|------------------------------------------------------------------------|
|---3---(3)s5---5---5----------------------------------------------------|
|---1---(1)s3---3---3----------------------------------------------------|
|------------------------------------------------------------------------|

|-----------------------------------------------------------------------|
|-----------------------------------------------------------------------|
|-----------------------------------------------------------------------|
|---3---5---5---5-----------5---5-----------5---5-------3---5---5---0---|
|---3---5---5---5-----------5---5-----------5---5-------3---5---5---0---|
|---3---5---5---5-----------5---5-----------5---5-------3---5---5---0---|

Note: Brackets mean keep your fingers on the note you just hit and let it ring.
|-----------------------------------------------------------------------|
|-----------------------------------------------11--11--11--11--11--11--|
|-----------------------------------------------10--10--10--10--10--10--|
|---8--8--8-----------------------------8---8---8---8---8---8---8---8---|
|---8--8--8--8V~~~~~~~~8h10p8--7--------8---8--(8)----------------------|
|---8--8--8------------------------10---8---8--(8)----------------------|

**When they play through the chorus more than once, on every second playthrough of riff 
replace the line just above with this one.

|----------------------------------------------------|
|----------------------------------------------------|
|------------5--5--5-----------5--5--5--5--5--5------|
|---7--7--7--7--7--7--7--7--7--7--7--7--7--7--7------|
|---5--5--5-----------5--5--5------------------------|
|----------------------------------------------------|
PM:|-------|         |-------------------------------|
**PM = palm mute

-----------------

Bridge/breakdown riff, distorted guitar(melody)

|-------------------------------------------------------------------|
|-------------------------------------------------------------------|
|---7------7---7---7s9------9---9---9s10-----10--10-10s12---12s14---|
|---x------x---x---x-x------x---x---x-x------x---x---x-x----x--x----|
|---5------5---5---5s7------7---7---7s8------8---8---8s10---10s12---|
|-------------------------------------------------------------------|

|-------------------------------------------------------------------|
|-------------------------------------------------------------------|
|---14s15---14s15---14s15---14s15---14s15---14s15---14s15---14/-----|
|---x--x----x--x----x--x----x--x----x--x----x--x----x--x----x-/-----|
|---12s13---12s13---12s13---12s13---12s13---12s13---12s13---12/-----|
|-------------------------------------------------------------------|

Eventually during the bridge another guitar comes in and plays overtop of the melody guitar

Bridge/breakdown riff, distorted guitar(harmony)

|-------------------------------------------------------------------|
|-------------------------------------------------------------------|
|-------------------------------------------------------------------|
|-------------------------------------------------------------------|
|---12-----12--12-12s10-----10--10-10s8------8---8---8s7-----5h7----|
|-------------------------------------------------------------------|

|-------------------------------------------------------------------|
|-------------------------------------------------------------------|
|-------------------------------------------------------------------|
|-------------------------------------------------------------------|
|---5h7---(5h7)---(5h7)---(5h7)---(5h7)---(5h7)---(5h7)---5/--------|
|-------------------------------------------------------------------|

----------------------------


At the very end of the song, Marcos does this.

Note: Brackets mean let the note you struck before hang.
|------------------------------------------|
|------------------------------------------|
|------------5---------(5)-----------------|
|------------7---------(7)-----------------|
|---5-------(5)--------(5)-----------------|
|------------------------------------------|
Tap to rate this tab
# A B C D E F G H I J K L M N O P Q R S T U V W X Y Z