Song name
# A B C D E F G H I J K L M N O P Q R S T U V W X Y Z

Pod - Southtown tab

Artist- Payable On Death (P.O.D.)
Song- Southtown

Tuning- DGCFAD (Every string 2 frets lower)

Intro A
Guitar 1- Clean
D|----------------|----------------|----------------|----------------|
A|----------------|----------------|----------------|----------------|
F|----------------|----------------|----------------|----------------|
C|4-4-4-4---------|----------------|4-4-4-4---------|----------------|
G|2-2-2-2-2-2-2-2-|2-2-2-2-2-2-2-2-|2-2-2-2-2-2-2-2-|2-2-2-2-2-2-2-2-|
D|--------3-3-3-3-|3-3-3-3-3-3-3-3-|--------0-0-0-0-|0-0-0-0-0-0-0-0-|
 |Guitar 2- Very quiet and clean                                     }x2
D|----------------|----------------|----------------|----------------|
A|----------------|----------------|----------------|----------------|
F|----------------|----------------|----------------|----------------|
C|4-0-4-0---4-0---|----------------|4-0-4-0---4-0---|----------------|
G|----------------|----------------|----------------|----------------|
D|--------3-------|----------------|--------0-------|----------------|


 Guitar 1
|----------------|----------------|----------------|----------------|
|----------------|----------------|----------------|----------------|
|----------------|----------------|----------------|----------------|
|4-4-4-4---------|----------------|4-4-4-4---------|----------------|
|2-2-2-2-2-2-2-2-|2-2-2-2-2-2-2-2-|2-2-2-2-2-2-2-2-|2-2-2-2-2-2-2-2-|
|--------3-3-3-3-|3-3-3-3-3-3-3-3-|--------0-0-0-0-|0-0-0-0-0-0-0-0-|
|Guitar 2         first time dont do 2nd and 4th measure            }x2
|----------------|----------------|----------------|----------------|
|----------------|----------------|----------------|----------------|
|----------------|----------------|----------------|----------------|
|4-0-4-0---4-0---|----4-0---------|4-0-4-0---4-0---|----4-0---------|
|----------------|----------------|----------------|----------------|
|--------3-------|--3-----3-------|--------0-------|--0-----0-------|


Intro B
 Guitar 1- Distorted
|------|----------------|----------------|----------------|----------------|
|------|----------------|----------------|----------------|----------------|
|--4---|----------------|--------4-4-4---|----------------|--------4-4-4---|
|--4---|5-5-5-----5---5-|5-5-5---4-4-4---|2-2-2-----2---2-|2-2-2---4-4-4---|
|--2---|5-5-5-----5---5-|5-5-5---2-2-2---|2-2-2-----2---2-|2-2-2---2-2-2---|
|------|3-3-3-----3---3-|3-3-3-----------|0-0-0-----0---0-|0-0-0-----------|
       {                                x2                                 }
  

Verse
Guitar 1
|----------------|----------------|----------------|----------------|
|----------------|----------------|----------------|----------------|
|----------------|--------4-4-4---|----------------|--------4-4-4---|
|5-5-5-----5---5-|5-5-5---4-4-4---|2-2-2-----2---2-|2-2-2---4-4-4---|x4
|5-5-5-----5---5-|5-5-5---2-2-2---|2-2-2-----2---2-|2-2-2---2-2-2---|
|3-3-3-----3---3-|3-3-3-----------|0-0-0-----0---0-|0-0-0-----------|


Pre-chorus
Guitar 1- Clean
|----------------|----------------|----------------|----------------|
|----------------|----------------|----------------|----------------|
|----------------|----------------|----------------|----------------|x1
|----------------|----------------|----------------|----------------|
|-----10-----9---|(9)-------------|----------------|----------------|
|0---------------|----------------|----------------|----------------|


Chorus
Guitar 1- Distorted-(14s, 12s, and 11s, not 1s and 4s and 2s) 
|----------------|----------------|----------------|----------------|
|----------------|----------------|----------------|----------------|
|-------14141414-|-------14141414-|-------11111111-|-------11111111-|
|5---5---x-x-x-x-|5---5---x-x-x-x-|2---2---x-x-x-x-|2---2---x-x-x-x-|x4
|5---5--12121212-|5---5--12121212-|2---2---9-9-9-9-|2---2---9-9-9-9-|
|3---3-----------|3---3-----------|0---0-----------|0---0-----------|


Verse
Guitar 1
|----------------|----------------|----------------|----------------|
|----------------|----------------|----------------|----------------|
|----------------|--------4-4-4---|----------------|--------4-4-4---|
|5-5-5-----5---5-|5-5-5---4-4-4---|2-2-2-----2---2-|2-2-2---4-4-4---|x4
|5-5-5-----5---5-|5-5-5---2-2-2---|2-2-2-----2---2-|2-2-2---2-2-2---|
|3-3-3-----3---3-|3-3-3-----------|0-0-0-----0---0-|0-0-0-----------|


Pre-chorus
Guitar 1- Clean
|----------------|----------------|----------------|----------------|
|----------------|----------------|----------------|----------------|
|----------------|----------------|----------------|----------------|
|----------------|----------------|----------------|----------------|
|-----10-----9---|(9)-------------|----------------|----------------|
|0---------------|----------------|----------------|----------------|


Chorus
Guitar 1- Distorted-(14s, 12s, and 11s, not 1s and 4s and 2s) 
|----------------|----------------|----------------|----------------|
|----------------|----------------|----------------|----------------|
|-------14141414-|-------14141414-|-------11111111-|-------11111111-|
|5---5---x-x-x-x-|5---5---x-x-x-x-|2---2---x-x-x-x-|2---2---x-x-x-x-|x4
|5---5--12121212-|5---5--12121212-|2---2---9-9-9-9-|2---2---9-9-9-9-|
|3---3-----------|3---3-----------|0---0-----------|0---0-----------|


Bridge A
Guitar 1- Clean
|----------------|----------------|----------------|----------------|
|----------------|----------------|----------------|----------------|
|----------------|----------------|----------------|----------------|
|2-2-4-4-5-5-2-2-|4-4-5-5-2-2-4-4-|2-2-4-4-5-5-2-2-|4-4-5-5-2-2-4-4-|
|----------------|----------------|----------------|----------------|
|----------------|----------------|----------------|----------------|
|
|Guitar 2- Clean
|----------------|----------------|----------------|----------------|
|----------------|----------------|----------------|----------------|
|----------------|----------------|----------------|----------------|
|----------------|----------------|----------------|----------------|
|----------------|----------------|----------------|----------------|
|----------------|----------------|----------------|----------------|



Guitar 1
|----------------|----------------|----------------|----------------|
|----------------|----------------|----------------|----------------|
|----------------|----------------|----------------|----------------|
|2-2-4-4-5-5-2-2-|4-4-5-5-2-2-4-4-|2-2-4-4-5-5-2-2-|4-4-5-5-2-2-4-4-|
|----------------|----------------|----------------|----------------|
|----------------|----------------|----------------|----------------|
|
|Guitar 2
|----------------|----------------|----------------|----------------|
|----7---6-------|6---4-------4---|2-------6---4---|----7---6-------|
|----------------|----------------|----------------|----------------|
|----------------|----------------|----------------|----------------|
|----------------|----------------|----------------|----------------|
|----------------|----------------|----------------|----------------|



Guitar 1
|----------------|----------------|----------------|----------------|
|----------------|----------------|----------------|----------------|
|----------------|----------------|----------------|----------------|
|2-2-4-4-5-5-2-2-|4-4-5-5-2-2-4-4-|2-2-4-4-5-5-2-2-|4-4-5-5-2-2-4-4-|
|----------------|----------------|----------------|----------------|
|----------------|----------------|----------------|----------------|
|
|Guitar 2
|----------------|----------------|----------------|----------------|
|----6---4-------|4---2-------6---|4-------7---6---|----6---4-------|
|----------------|----------------|----------------|----------------|
|----------------|----------------|----------------|----------------|
|----------------|----------------|----------------|----------------|
|----------------|----------------|----------------|----------------|


Guitar 1
|----------------|----------------|----------------|----------------|
|----------------|----------------|----------------|----------------|
|----------------|----------------|----------------|----------------|
|2-2-4-4-5-5-2-2-|4-4-5-5-2-2-4-4-|2-2-4-4-5-5-2-2-|4-4-5-5-2-2-4-4-|
|----------------|----------------|----------------|----------------|
|----------------|----------------|----------------|----------------|
|
|Guitar 2
|----------------|----------------|----------------|----------------|
|----4---2-------|6---4-------7---|6-------6---4---|----4---2-------|
|----------------|----------------|----------------|----------------|
|----------------|----------------|----------------|----------------|
|----------------|----------------|----------------|----------------|
|----------------|----------------|----------------|----------------|


Bridge B
Guitar 1
|----------------|----------------|----------------|----------------|
|----------------|----------------|----------------|----------------|
|----------------|----------------|----------------|----------------|
|2---4---5---2---|4---5---x-x---x-|2---4---5---2---|4---5---x-x---x-|x3
|2---4---5---2---|4---5---x-x---x-|2---4---5---2---|4---5---x-x---x-|
|0---2---3---0---|2---3---x-x---x-|0---2---3---0---|2---3---x-x---x-|


Guitar 1
|----------------|----------------|----------------|----------------|
|----------------|----------------|----------------|----------------|
|----------------|----------------|----------------|--------4-------|
|2---4---5---2---|4---5---x-x---x-|2---4---5---2---|4---5---4-------|
|2---4---5---2---|4---5---x-x---x-|2---4---5---2---|4---5---2-------|
|0---2---3---0---|2---3---x-x---x-|0---2---3---0---|2---3-----------|


Bridge C
Guitar 1                                             dont play last 3 chords
|----------------|----------------|----------------|----------------|second
|----------------|----------------|----------------|----------------|time
|----------------|--------4-4-4---|----------------|--------4-4-4---|through
|5-5-5-----5---5-|5-5-5---4-4-4---|2-2-2-----2---2-|2-2-2---4-4-4---|x2
|5-5-5-----5---5-|5-5-5---2-2-2---|2-2-2-----2---2-|2-2-2---2-2-2---|
|3-3-3-----3---3-|3-3-3-----------|0-0-0-----0---0-|0-0-0-----------|


Chorus
Guitar 1- Distorted-(14s, 12s, and 11s, not 1s and 4s and 2s) 
|----------------|----------------|----------------|----------------|
|----------------|----------------|----------------|----------------|
|-------14141414-|-------14141414-|-------11111111-|-------11111111-|
|5---5---x-x-x-x-|5---5---x-x-x-x-|2---2---x-x-x-x-|2---2---x-x-x-x-|x4
|5---5--12121212-|5---5--12121212-|2---2---9-9-9-9-|2---2---9-9-9-9-|
|3---3-----------|3---3-----------|0---0-----------|0---0-----------|


Outro
Guitar 1                                            
|----------------|----------------|----------------|----------------|
|----------------|----------------|----------------|----------------|
|----------------|---------14b----|----------------|----------------|
|5-5-5-----5---5-|5-5-5-----x-----|2-2-2-----2---2-|2-2-2-----------|
|5-5-5-----5---5-|5-5-5----12b----|2-2-2-----2---2-|2-2-2-----------|
|3-3-3-----3---3-|3-3-3-----------|0-0-0-----0---0-|0-0-0-----------|
Tap to rate this tab
# A B C D E F G H I J K L M N O P Q R S T U V W X Y Z