Song name
# A B C D E F G H I J K L M N O P Q R S T U V W X Y Z

Pod - Goodbye For Now tab

Tuning: Drop D (DAdGBE)

| /   slide up
| h   hammer-on
| p   pull-off
| .   palm-mute
| ~   let ring


Rhythm isn't posted. It's on you. ;) For two different parts that are played at 
the same time, I labeled them -Part 1- and -Part 2-


[Intro/Verse Riff] (Played throughout)
E|------------------------------------------------------------------------|
B|------------------------------------------------------------------------|
G|------------------------------------------------------------------------|
d|------7-----7---7-------10-----10---10-----7-----7---7-----7-----7---7--|
A|----5-----5---5---5/8--------8----8------5-----5---5-----5-----5---5----|
D|--0-----0-------------0----0-----------8-----8---------5-----5----------|


[Mini Riff] (Played at regular intervals in the verse and at other times in the song)
E|--------------------------|
B|--------------------------|
G|--14h15-14p12-14~---------|
d|--------------------------|
A|--------------------------|
D|--------------------------|


[Pre-Chorus]
E|---------------------------------|
B|---------------------------------|
G|------------------5-----5---5h7--|
d|--0-0-0-0-0-0-0-0---0-0---0------|
A|---------------------------------|
D|---------------------------------|
    ...............   ...   .

-Part 1-
E|--------------------------|
B|--------------------------|
G|--7---12---7---14---------|
d|--7---12---7---14---------|
A|--5---10---5---12---------|
D|--------------------------|

-Part 2-
E|--------------------------|
B|--------------------------|
G|--------------------------|
d|--0---5---10---5----------|
A|--0---3---8----5----------|
D|--0---3---8----5----------|
    ..............


[Chorus]

-Part 1-
E|-------------------------------------|
B|-------------------------------------|
G|-------------------------------------|
d|---0----5----10---5------------------|
A|---0----3----8----5------------------|
D|---0----3----8----5------------------|

-Part 2 without capo- (Parenthetical notes are optional)
E|---5----5----5----5---------------------|
B|---6----8----6----8---------------------|
G|---7----5----7----7---------------------|
d|---7----7----8----5---------------------|
A|--(5)--(8)------------------------------|
D|----------------------------------------|

-Part 2 with capo 5-
E|---0----0----0-----0--------------------|
B|---1----3----1-----3--------------------|
G|---2----0----2-----2--------------------|
d|---2----2----3-----0--------------------|
A|---0----3-------------------------------|
D|----------------------------------------|

(Play the mini-riff quietly at the end of the chorus)


[Bridge]
E|-----------------------------------|
B|-----------------------------------|
G|-----------------------------------|
d|--0--3--0--10--0--3--0--3----------|
A|--0--1--0--10--0--1--0--1----------|
D|--0--1--0--10--0--1--0--1----------|


[Outro] (Play the intro riff once, but replace the ending of it with this)
E|--------------------------|
B|--------------------------|
G|--------------------------|
d|------7-----7-7h8-8p5-7~--|
A|----5-----5---------------|
D|--5-----5-----------------|

God bless. :)
Tap to rate this tab
 
# A B C D E F G H I J K L M N O P Q R S T U V W X Y Z