Pod - Youth Of The Nation tab

Tuning: Drop C

| p   pull-off
| h   hammer-on
| ()  ghost note
| ~   let ring

All guitars tuned CGcFAD
 {Gtr 1 - electric
 {Gtr 2 - "effects" guitar

Here's the first comprehensive tab for this song. I tabbed it out the way that 
they play it, plus how to play it without delay. Try playing along with the song 
to get the feel of how it goes.

If you want to do it right, you're going to need three pedals: a delay pedal (most 
importantly), a distortion pedal, and a wah pedal. They are all for the Gtr 1 parts.


[Intro]
0:13
  {Gtr 1
    (Delay)
D|---------------------|
A|---------------------|
F|---------------------|
c|--------5---5p3p2p0--|
G|---------------------|
C|--0---3--------------|
    (No Delay)
D|-----------------------------------------|
A|-----------------------------------------|
F|-----------------------------------------|
c|-----------------5---5---5--(5)-5p3p2p0--|
G|-----------------------------------------|
C|--0--0--0-0-0--3---3---3--(3)------------|

0:18
  {Gtr 1
    (Delay)
D|---------------------|
A|---------------------|
F|---------------------|
c|--------5---5p3p2p0--|
G|---------------------|
C|--0---3--------------|
    (No Delay)
D|-----------------------------------------|
A|-----------------------------------------|
F|-----------------------------------------|
c|-----------------5---5---5--(5)-5p3p2p0--|
G|-----------------------------------------|
C|--0--0--0-0-0--3---3---3--(3)------------|

0:23
  {Gtr 1
    (Delay)
D|---------------------|
A|---------------------|
F|---------------------|
c|--------5---5p3p2p0--|
G|---------------------|
C|--0---3--------------|
    (No Delay)
D|-----------------------------------------|
A|-----------------------------------------|
F|-----------------------------------------|
c|-----------------5---5---5--(5)-5p3p2p0--|
G|-----------------------------------------|
C|--0--0--0-0-0--3---3---3--(3)------------|

0:27
  {Gtr 1
    (Delay)
D|---------------------|
A|---------------------|
F|---------------------|
c|--------5---5p3p2p0--|
G|---------------------|
C|--0---3--------------|
    (No Delay)
D|-----------------------------------------|
A|-----------------------------------------|
F|-----------------------------------------|
c|-----------------5---5---5--(5)-5p3p2p0--|
G|-----------------------------------------|
C|--0--0--0-0-0--3---3---3--(3)------------|



[Verse 1]
       ~Part 1~
0:32
  {Gtr 1
D|---------------------------------|
A|---------------------------------|
F|--------2-2-2---0-0-0------------|
c|------------------------5p3-5p3--|
G|---------------------------------|
C|--0-0-0--------------------------|

0:37
  {Gtr 1
D|---------------------------------|
A|---------------------------------|
F|--------2-2-2---0-0-0------------|
c|------------------------5p3-5p3--|
G|---------------------------------|
C|--0-0-0--------------------------|

0:42
  {Gtr 1
D|---------------------------------|
A|---------------------------------|
F|--------2-2-2---0-0-0------------|
c|------------------------5p3-5p3--|
G|---------------------------------|
C|--0-0-0--------------------------|

0:47
  {Gtr 1
D|---------------------------------|
A|---------------------------------|
F|--------2-2-2---0-0-0------------|
c|------------------------5p3-5p3--|
G|---------------------------------|
C|--0-0-0--------------------------|


       ~Part 2~
0:52
  {Gtr 1
    (Delay)
D|--------10-10-10---12-12-12-12-12-13-13-13-13--|
A|--10-10----------------------------------------|
F|-----------------------------------------------| 
c|-----------------------------------------------| 
G|-----------------------------------------------| 
C|-----------------------------------------------|
                 
0:57
  {Gtr 1
    (Delay)
       /-No Delay-\
D|--------10-10-10----------0~--|       
A|-----10-------------1~-3~-----|      
F|------------------------------|      
c|------------------------------|      
G|------------------------------|      
C|------------------------------|
    (No Delay)                          
D|--------10-10-10------------0-0-0-0~--|       
A|-----10-------------1-1-3-3-----------|      
F|--------------------------------------|      
c|--------------------------------------|      
G|--------------------------------------|      
C|--------------------------------------|

1:02
  {Gtr 1
    (Delay)
D|--------10-10-10---12-12-12-12-12-13-13-13-13--|
A|--10-10----------------------------------------|
F|-----------------------------------------------| 
c|-----------------------------------------------| 
G|-----------------------------------------------| 
C|-----------------------------------------------|
                 
1:07
  {Gtr 1
    (Delay)
       /-No Delay-\
D|--------10-10-10----------0~--|       
A|-----10-------------1~-3~-----|      
F|------------------------------|      
c|------------------------------|      
G|------------------------------|      
C|------------------------------|
    (No Delay)                          
D|--------10-10-10------------0-0-0-0~--|       
A|-----10-------------1-1-3-3-----------|      
F|--------------------------------------|      
c|--------------------------------------|      
G|--------------------------------------|      
C|--------------------------------------|



[Chorus 1]
1:12
  {Gtr 1
    (Delay)
D|---------------------|
A|---------------------|
F|---------------------|
c|--------5---5p3p2p0--|
G|---------------------|
C|--0---3--------------|
    (No Delay)
D|-----------------------------------------|
A|-----------------------------------------|
F|-----------------------------------------|
c|-----------------5---5---5--(5)-5p3p2p0--|
G|-----------------------------------------|
C|--0--0--0-0-0--3---3---3--(3)------------|

1:16
  {Gtr 1
    (Delay)
D|---------------------|
A|---------------------|
F|---------------------|
c|--------5---5p3p2p0--|
G|---------------------|
C|--0---3--------------|
    (No Delay)
D|-----------------------------------------|
A|-----------------------------------------|
F|-----------------------------------------|
c|-----------------5---5---5--(5)-5p3p2p0--|
G|-----------------------------------------|
C|--0--0--0-0-0--3---3---3--(3)------------|

1:21
  {Gtr 1
    (Delay)
D|---------------------|
A|---------------------|
F|---------------------|
c|--------5---5p3p2p0--|
G|---------------------|
C|--0---3--------------|
    (No Delay)
D|-----------------------------------------|
A|-----------------------------------------|
F|-----------------------------------------|
c|-----------------5---5---5--(5)-5p3p2p0--|
G|-----------------------------------------|
C|--0--0--0-0-0--3---3---3--(3)------------|

1:26
  {Gtr 1
    (Delay)
D|---------------------|
A|---------------------|
F|---------------------|
c|--------5---5p3p2p0--|
G|---------------------|
C|--0---3--------------|
    (No Delay)
D|-----------------------------------------|
A|-----------------------------------------|
F|-----------------------------------------|
c|-----------------5---5---5--(5)-5p3p2p0--|
G|-----------------------------------------|
C|--0--0--0-0-0--3---3---3--(3)------------|



[Verse 2] The Gtr 2 part has a wierd effect on it. Try to figure it out. ;)
       ~Part 1~
1:31
   {Gtr 1
D|---------------------------------|
A|---------------------------------|
F|--------2-2-2---0-0-0------------|
c|------------------------5p3-5p3--|
G|---------------------------------|
C|--0-0-0--------------------------|
 | {Gtr 2
D|------------------|
A|-------------3~---|
F|-------------2~---|
c|------------------|
G|------------------|
C|------------------|

1:36
   {Gtr 1
D|---------------------------------|
A|---------------------------------|
F|--------2-2-2---0-0-0------------|
c|------------------------5p3-5p3--|
G|---------------------------------|
C|--0-0-0--------------------------|
 | {Gtr 2
D|------------------|
A|-------------3~---|
F|-------------2~---|
c|------------------|
G|------------------|
C|------------------|

1:41
   {Gtr 1
D|---------------------------------|
A|---------------------------------|
F|--------2-2-2---0-0-0------------|
c|------------------------5p3-5p3--|
G|---------------------------------|
C|--0-0-0--------------------------|
 | {Gtr 2
D|------------------|
A|-------------3~---|
F|-------------2~---|
c|------------------|
G|------------------|
C|------------------|

1:46
   {Gtr 1
D|---------------------------------|
A|---------------------------------|
F|--------2-2-2---0-0-0------------|
c|------------------------5p3-5p3--|
G|---------------------------------|
C|--0-0-0--------------------------|
 | {Gtr 2
D|------------------|
A|-------------3~---|
F|-------------2~---|
c|------------------|
G|------------------|
C|------------------|


       ~Part 2~
1:51
  {Gtr 1
D|--------10-10-10---12-12-12-12-12-13-13-13-13--|
A|--10-10----------------------------------------|
F|-----------------------------------------------| 
c|-----------------------------------------------| 
G|-----------------------------------------------| 
C|-----------------------------------------------|
                 
1:56
  {Gtr 1
    (Delay)
       /-No Delay-\
D|--------10-10-10----------0~--|       
A|-----10-------------1~-3~-----|      
F|------------------------------|      
c|------------------------------|      
G|------------------------------|      
C|------------------------------|
    (No Delay)                          
D|--------10-10-10------------0-0-0-0~--|       
A|-----10-------------1-1-3-3-----------|      
F|--------------------------------------|      
c|--------------------------------------|      
G|--------------------------------------|      
C|--------------------------------------|

2:01
  {Gtr 1
D|--------10-10-10---12-12-12-12-12-13-13-13-13--|
A|--10-10----------------------------------------|
F|-----------------------------------------------| 
c|-----------------------------------------------| 
G|-----------------------------------------------| 
C|-----------------------------------------------|
                 
2:06
  {Gtr 1
    (Delay)
       /-No Delay-\
D|--------10-10-10----------0~--|       
A|-----10-------------1~-3~-----|      
F|------------------------------|      
c|------------------------------|      
G|------------------------------|      
C|------------------------------|
    (No Delay)                          
D|--------10-10-10------------0-0-0-0~--|       
A|-----10-------------1-1-3-3-----------|      
F|--------------------------------------|      
c|--------------------------------------|      
G|--------------------------------------|      
C|--------------------------------------|



[Chorus 2]
2:10
  {Gtr 1
    (Delay)
D|---------------------|
A|---------------------|
F|---------------------|
c|--------5---5p3p2p0--|
G|---------------------|
C|--0---3--------------|
    (No Delay)
D|-----------------------------------------|
A|-----------------------------------------|
F|-----------------------------------------|
c|-----------------5---5---5--(5)-5p3p2p0--|
G|-----------------------------------------|
C|--0--0--0-0-0--3---3---3--(3)------------|

2:15
  {Gtr 1
    (Delay)
D|---------------------|
A|---------------------|
F|---------------------|
c|--------5---5p3p2p0--|
G|---------------------|
C|--0---3--------------|
    (No Delay)
D|-----------------------------------------|
A|-----------------------------------------|
F|-----------------------------------------|
c|-----------------5---5---5--(5)-5p3p2p0--|
G|-----------------------------------------|
C|--0--0--0-0-0--3---3---3--(3)------------|

2:20
  {Gtr 1
    (Delay)
D|---------------------|
A|---------------------|
F|---------------------|
c|--------5---5p3p2p0--|
G|---------------------|
C|--0---3--------------|
    (No Delay)
D|-----------------------------------------|
A|-----------------------------------------|
F|-----------------------------------------|
c|-----------------5---5---5--(5)-5p3p2p0--|
G|-----------------------------------------|
C|--0--0--0-0-0--3---3---3--(3)------------|

2:25
  {Gtr 1
    (Delay)
D|---------------------|
A|---------------------|
F|---------------------|
c|--------5---5p3p2p0--|
G|---------------------|
C|--0---3--------------|
    (No Delay)
D|-----------------------------------------|
A|-----------------------------------------|
F|-----------------------------------------|
c|-----------------5---5---5--(5)-5p3p2p0--|
G|-----------------------------------------|
C|--0--0--0-0-0--3---3---3--(3)------------|



[Bridge] Gtr 1 is distorted for the solo (the parts below 2:30 and 2:40).
2:30
  {Gtr 1
D|--------------------------------------------|
A|-----5--6--5--6--8--8-6-5---5h6-5---5-------|
F|--7-------------------------------7----7-5--|
c|--------------------------------------------|
G|--------------------------------------------|
C|--------------------------------------------|

2:40
  {Gtr 1
D|--------------------------------------------|
A|-----5--6--5--6--8--8-6-5---5h6-5---5-------|
F|--7-------------------------------7----7-5--|
c|--------------------------------------------|
G|--------------------------------------------|
C|--------------------------------------------|

2:50
  {Gtr 1
D|--------10-10-10---12-12-12-12-12-13-13-13-13--|
A|--10-10----------------------------------------|
F|-----------------------------------------------| 
c|-----------------------------------------------| 
G|-----------------------------------------------| 
C|-----------------------------------------------|
            
2:55
  {Gtr 1
    (Delay)
       /-No Delay-\
D|--------10-10-10----------0~--|       
A|-----10-------------1~-3~-----|      
F|------------------------------|      
c|------------------------------|      
G|------------------------------|      
C|------------------------------|
    (No Delay)                          
D|--------10-10-10------------0-0-0-0~--|       
A|-----10-------------1-1-3-3-----------|      
F|--------------------------------------|      
c|--------------------------------------|      
G|--------------------------------------|      
C|--------------------------------------|

3:00
  {Gtr 1
D|--------10-10-10---12-12-12-12-12-13-13-13-13--|
A|--10-10----------------------------------------|
F|-----------------------------------------------| 
c|-----------------------------------------------| 
G|-----------------------------------------------| 
C|-----------------------------------------------|
                 
3:05
  {Gtr 1
    (Delay)
       /-No Delay-\
D|--------10-10-10----------0~--|       
A|-----10-------------1~-3~-----|      
F|------------------------------|      
c|------------------------------|      
G|------------------------------|      
C|------------------------------|
    (No Delay)                          
D|--------10-10-10------------0-0-0-0~--|       
A|-----10-------------1-1-3-3-----------|      
F|--------------------------------------|      
c|--------------------------------------|      
G|--------------------------------------|      
C|--------------------------------------|



[Last Chorus]
3:19
  {Gtr 1
    (Delay)
D|---------------------|
A|---------------------|
F|---------------------|
c|--------5---5p3p2p0--|
G|---------------------|
C|--0---3--------------|
    (No Delay)
D|-----------------------------------------|
A|-----------------------------------------|
F|-----------------------------------------|
c|-----------------5---5---5--(5)-5p3p2p0--|
G|-----------------------------------------|
C|--0--0--0-0-0--3---3---3--(3)------------|

3:24
  {Gtr 1
    (Delay)
D|---------------------|
A|---------------------|
F|---------------------|
c|--------5---5p3p2p0--|
G|---------------------|
C|--0---3--------------|
    (No Delay)
D|-----------------------------------------|
A|-----------------------------------------|
F|-----------------------------------------|
c|-----------------5---5---5--(5)-5p3p2p0--|
G|-----------------------------------------|
C|--0--0--0-0-0--3---3---3--(3)------------|

3:29
  {Gtr 1
    (Delay)
    /-No delay-\
D|-------------------------------|
A|-------------------------------|
F|--------2-2-2------------------|
c|------------------5---5p3p2p0--|
G|-------------------------------|
C|--0-0-0---------3--------------|
    (No Delay)
D|------------------------------------------|
A|------------------------------------------|
F|--------2-2-2-----------------------------|
c|------------------5---5---5--(5)-5p3p2p0--|
G|------------------------------------------|
C|--0-0-0---------3---3---3--(3)------------|

3:34
  {Gtr 1
    (Delay)
    /-No delay-\
D|-------------------------------|
A|-------------------------------|
F|--------2-2-2------------------|
c|------------------5---5p3p2p0--|
G|-------------------------------|
C|--0-0-0---------3--------------|
    (No Delay)
D|------------------------------------------|
A|------------------------------------------|
F|--------2-2-2-----------------------------|
c|------------------5---5---5--(5)-5p3p2p0--|
G|------------------------------------------|
C|--0-0-0---------3---3---3--(3)------------|

3:39
  {Gtr 1
    (Delay)
    /-No delay-\
D|-------------------------------|
A|-------------------------------|
F|--------2-2-2------------------|
c|------------------5---5p3p2p0--|
G|-------------------------------|
C|--0-0-0---------3--------------|
    (No Delay)
D|------------------------------------------|
A|------------------------------------------|
F|--------2-2-2-----------------------------|
c|------------------5---5---5--(5)-5p3p2p0--|
G|------------------------------------------|
C|--0-0-0---------3---3---3--(3)------------|

3:44
  {Gtr 1
    (Delay)
    /-No delay-\
D|-------------------------------|
A|-------------------------------|
F|--------2-2-2------------------|
c|------------------5---5p3p2p0--|
G|-------------------------------|
C|--0-0-0---------3--------------|
    (No Delay)
D|------------------------------------------|
A|------------------------------------------|
F|--------2-2-2-----------------------------|
c|------------------5---5---5--(5)-5p3p2p0--|
G|------------------------------------------|
C|--0-0-0---------3---3---3--(3)------------|



[Outro] The Gtr 1 parts all have wah here except where labeled otherwise
3:49
  {Gtr 1
D|---------------------------|
A|---------------------------|
F|---------------------------|
c|--2-3-5-2-3-5-2-3-5-2-3-5--|
G|---------------------------|
C|---------------------------|

3:52
  {Gtr 1
            /- -No effects- -\
D|----------------------------------|
A|----------------------------------|
F|----------------------------------|
c|--2-3-5-2-222222222222222222-3-5--|
G|----------------------------------|
C|----------------------------------|

3:58
  {Gtr 1
D|---------------------------|
A|---------------------------|
F|---------------------------|
c|--2-3-5-2-3-5-2-3-5-2-3-5--|
G|---------------------------|
C|---------------------------|

4:00
  {Gtr 1
D|-----------------|
A|-----------------|
F|-----------------|
c|--2-3-5-2~-------|
G|-----------------|
C|-----------------|

4:05
  {Gtr 1 - This part just has delay. Do the slide nice and slow
    (Delay)
D|--12/13--12p10~---|
A|------------------|
F|------------------|
c|------------------|
G|------------------|
C|------------------|
    (No Delay)
D|--12/13--12p10--12p10--12p10--12p10~--|
A|--------------------------------------|
F|--------------------------------------|
c|--------------------------------------|
G|--------------------------------------|
C|--------------------------------------|


..and it's done! Finally haha. God bless. :)
Tap to rate this tab
 
# A B C D E F G H I J K L M N O P Q R S T U V W X Y Z