Song name
# A B C D E F G H I J K L M N O P Q R S T U V W X Y Z

Pod - Set Your Eyes To Zion tab

This is such a beautiful song with such a powerful meaning too.
It uses a complicated effect but i think i seem to have worked it out.
Try and suit this as close as you can to whatever pedal or
whatever it is you use:


Amp model: t1
Equ: b9, d9, t1
Chorus mod: F5
Delay: P9, 44
Reverb: r9


Sorry if none of that makes no sense to you but thats the best
way i can think to describe it. To be honest I did actualy just
copy the settings I had down on my pedal so im sorry if it doesn't
make sense.



Intro

E|---------|--------------------------------------------|
B|---------|--------------------------------------------|
G|-----5h7-|-9-(bend down and slide down as you release)|
D|---5-----|--------------------------------------------|
A|-3-------|--------------------------------------------|
D|---------|--------------------------------------------|

E|---------|----------|
B|---------|----------|
G|---------|----------|
D|-----3h5-|-----8h10-|
A|---3-----|---8------|
D|-3-------|-8--------|

Verse

E|-5-|-8-|-13-|-3-|
B|-5-|-5-|-10-|-3-|
G|-2-|-7-|-10-|-2-|
D|-0-|-0-|-0--|-0-|
A|---|---|----|---|
D|---|---|----|---|


Chorus

E|-----------|-----------|
B|-----------|-----------|
G|-----------|-----------|
D|-----7-8-7-|-----3-5-3-|
A|---5-------|---3-------|
D|-5---------|-3---------|


Solo (Don't be taken back by all the numbers ect, it's actualy fairly easy)

E|-----------------|-----------------|----------|
B|-----------------|-----------------|----------|
G|-14-14-14--14-14-|-12----------12--|----------|
D|-----------------|----15-14-15-----|-15-14-15-|
A|-----------------|-----------------|----------|
D|-----------------|-----------------|----------|

E|-----------------|-----------------|----------|
B|-----------------|-----------------|----------|
G|-14-14-14--14-14-|-12----------12--|----------|
D|-----------------|----15-14-15-----|-15-14-12-|
A|-----------------|-----------------|----------|
D|-----------------|-----------------|----------|

E|----------|------------------------------------|
B|----------|------------------------------------|
G|----------|------------------------------------|
D|-15-14-15-|-15-14--14p12--12p10--10p8--8p7--5h7|
A|----------|------------------------------------|
D|----------|------------------------------------|

E|-----------------|---------|---------|
B|-----------------|---------|---------|
G|-----------------|---------|---------|
D|-7-5-5h7-7-5-5h7-|-5-3-2---|-3-2-0---|
A|-----------------|---------|---------|
D|-----------------|---------|---------|


Outro

E|-000-0000-|---------------------------|
B|-555-5555-|-5h6p5--3-5-6--3-5-6--(5h6)|
G|-222-5555-|---------------------------|
D|-000-0000-|---------------------------|
A|----------|---------------------------|
D|----------|---------------------------|


Play the above stansa 3 times and end on this:

E|-000-0000-|---------------------|
B|-555-5555-|-5h6p5--3-5----6-5-3-|
G|-222-5555-|---------------------|
D|-000-0000-|---------------------|
A|----------|---------------------|
D|----------|---------------------|
Tap to rate this tab
 
# A B C D E F G H I J K L M N O P Q R S T U V W X Y Z