Song name
# A B C D E F G H I J K L M N O P Q R S T U V W X Y Z

Pod - Alive Acoustic tab

Song: Alive
Band: P.O.D.
Album: Satellite 
Tabbed by:  Alejandro D'Brot 
	    alexd@terra.com.pe

p= pull-off 
h= hammer-on 
~= vibrato (manual)

Tuning: Standard (Acoustic Guitar)

NOTE: This isn't the semi-acoustic song out on the radio, it's just a cool way to play it on 
      an acoustic guitar without having to tune it to Low C. I know it's a little hard to 
      play, but it is an awesome song. .

[ intro & main riff ] 
     
e|--------------------------------------------------------| 
B|--------------------------------------------------------|
G|--------------------------------------------------------| 
D|-7-7-7-5-7----5-5-5-5-8-8-8--8-8-8-8-8----8-8-8-8-3-3-3-|
A|-5-5-5-3-5----5-5-5-5-8-8-8--8-8-8-8-8----8-8-8-8-3-3-3-|
E|-5-5-5-3-5----3-3-3-3-6-6-6--6-6-6-6-6----6-6-6-6-1-1-1-|
     D   C         G         A#               A#      F        
                                                                        
...play that six times...		                         
...then end it by playing this just one time...                  
                                                                        
e|--------------------------------------------------------| 
B|--------------------------------------------------------|
G|--------------------------------------------------------| 
D|-7-7-7-5-7----5-5-5-5-8-8-8--8-8-8-8-8----3-3-5-5-3-3-5-|
A|-5-5-5-3-5----5-5-5-5-8-8-8--8-8-8-8-8----3-3-3-3-3-3-3-|
E|-5-5-5-3-5----3-3-3-3-6-6-6--6-6-6-6-6----1-1-3-3-1-1-3-|
     D   C         G         A#              F   C   F  C     


[ chorus ]

..play this two times...

  "...I... feel so alive..."
e|---------------1------------------------------------------------|
B|---------------3------------------------------------------------|
G|-3-3-3-3-3-3-3-3--3-3-3-3-5-5-5---------------------------------|
D|-3-3-3-3-3-3-3-3--3-3-3-3-5-5-5-7-7-7-7-7-7-7-7-7-7-7-7-7-7-7-7-|
A|-1-1-1-1-1-1-1-1--1-1-1-1-3-3-3-5-5-5-5-5-5-5-5-5-5-5-5-5-5-5-5-|
E|--------------------------------5-5-5-5-5-5-5-5-5-5-5-5-5-5-5-5-|
      A#(7x)          A#      C                 D(16x)

e|-----------------------------------------------------------|
B|-----------------------------------------------------------|
G|-----------------------------------------------------------|
D|-3-3-3-3-3-3-3-3-3-3-3-3-3----3-3-3-3-3-3-3-3--------------|
A|-3-3-3-3-3-3-3-3-3-3-3-3-3-3--3-3-3-3-3-3-3-3/8-7-5-7--5-3-|
E|-1-1-1-1-1-1-1-1-1-1-1-1-1----1-1-1-1-1-1-1-1--------------|
             F(13x)                  F(8x)


...then play: 'main riff' (x4)
	      'chorus' (x2)


[ bridge ]

e|--------------------------------------------------| 
B|-------6-5---------5h6p5-(11x)--------------------| 
G|-7------------5-----------------------------------|
D|-0------------------------------------------------| 
A|--------------------------------------------------| 
E|--------------------------------------------------| 

  "...and know that I know you..."
e|--------------------------------------------------| 
B|-------6~5~--------6~-----------------------------| 
G|-7------------5-----------------------------------|
D|-0------------------------------------------------| 
A|--------------------------------------------------| 
E|--------------------------------------------------| 
		   
e|-------------------12h13p12-(11x)-----------------| 
B|-------6~5~---------------------------------------| 
G|-7------------5-----------------------------------|
D|-0------------------------------------------------| 
A|--------------------------------------------------| 
E|--------------------------------------------------| 

...then play the chorus four times...
[ the third and fourth time the chorus is played, the first part of		 ] 
[ the bridge part is overlapped and the chorus is cut short (listen to the song) ]

...make a short pause and play this four times...

e|------------------------------| 
B|------------------------------| 
G|------------------------------|  
D|-7-7-7-5-7---7-7-5-7-5-7------| 
A|-5-5-5-3-5---5-5-3-5-3-5------| 
E|-5-5-5-3-5---5-5-3-5-3-5------| 

...
Tap to rate this tab
# A B C D E F G H I J K L M N O P Q R S T U V W X Y Z