Song name
# A B C D E F G H I J K L M N O P Q R S T U V W X Y Z

Pod - Guitarras De Amor tab

P.O.D. - Guitarras de Amor

Tabbed by suttyo 2011.09.14.

-------------------------------
Full guitar legend (FYI)

L - tied note
x - dead note
g - grace note
(n) - ghost note
> - accentuded note
NH - natural harmonic
AH - artificial harmonic
TH - tapped harmonic
SH - semi harmonic
PH - pitch harmonic
h - hammer on
p - pull off
b - bend
br - bendRelease
pb - preBend
pbr - preBendRelease
brb - bendReleaseBend
\n/ - tremolo bar dip
\n - tremolo bar dive
-/n - tremolo bar Release up
/n\ - tremolo bar inverted dip
/n - tremolo bar return
-\n - tremolo bar Release down
S - shift slide
s - legato slide
/ - slide into from below or out of upwards
\ - slide into from above or out of downwards
~ - vibrato
W - wide vibrato
tr - trill
TP - tremolo picking
T - tapping
S - slap
P - pop
< - fade in
^ - brush up
v - brush down
--------------------------------

Guitar tab


E|------------------------------------------|------------------------------------------|
B|------------------------------------------|------------------------------------------|
G|---------------7-7--5-5--4-4--5-5---------|------------7-7-7--5-5--------------------|
D|---9--------9-----------------------------|---9---9-9--------------------------------|
A|-7---7------------------------------------|-7---7------------------------------------|
E|------------------------------------------|------------------------------------------|

E|------------------------------------------|-7--7-7-7-8-8-8s10-8h10p8s7---------------|
B|------------------------------------------|------------------------------------------|
G|---------------7-7--5-5--4-4--5-5---------|------------------------------------------|
D|---9--------9-----------------------------|------------------------------------------|
A|-7---7--7-7-------------------------------|------------------------------------------|
E|------------------------------------------|------------------------------------------|

E|-8-7---------7-8-7----7-------------------|-7-8--7-8-10-10-8-7-8--7------------------|
B|-----10---10-------10-----10-8------------|-------------------------10---------------|
G|------------------------------------------|------------------------------------------|
D|------------------------------------------|------------------------------------------|
A|------------------------------------------|------------------------------------------|
E|------------------------------------------|------------------------------------------|

E|------------------------------------------|------------------------------------------|
B|-10-10-10-8-------------------------------|------------------------------------------|
G|------------10-9--------------------------|-9-10-12-10-9h10s7-9-9h10-9---9h10-9------|
D|------------------------------------------|------------------------------------------|
A|------------------------------------------|------------------------------------------|
E|------------------------------------------|------------------------------------------|

E|------------------------------------------|------------------------------------------|
B|------------------------------------------|------------------------------------------|
G|---------------7-7--5-5--4-4--5-5---------|---------------7-7--5-5--4-4--5-5---------|
D|---9--------9-----------------------------|---9--------9-----------------------------|
A|-7---7------------------------------------|-7---7--7-7-------------------------------|
E|------------------------------------------|------------------------------------------|

E|------------------------------------------|------------------------------------------|
B|------------------------------------------|------------------------------------------|
G|---------------7-7--5-5--4-4--5-5---------|------------------------------------------|
D|---9--------9-----------------------------|------------------------------------------|
A|-7---7------------------------------------|------------------------------------------|
E|------------------------------------------|------------------------------------------|
Tap to rate this tab
# A B C D E F G H I J K L M N O P Q R S T U V W X Y Z