Song name
# A B C D E F G H I J K L M N O P Q R S T U V W X Y Z

Pod - Portrait tab

INTRO:

E|-5---5-3---3-1---1-0---0-0---0---0-1---1-----------------------------|
B|---3-----3-----3-----3-----3---3-----3---1---1-5---5-3---3-3---3---3-|
G|-------------------------------------------2-----2-----5-----5---5---|
C|---------------------------------------------------------------------|
G|---------------------------------------------------------------------|
C|---------------------------------------------------------------------|

E|-----------------------------------------------------------|
B|-----------------------------------------------------------|
G|-----------------------------------------------------------|
C|-2-2-2-0-2-5-2-2-2-0-2-5-2-2-2-0-2-5-2-2-2-0-2-5-2-2-2-0-2-|
G|-2-2-2-0-2-5-2-2-2-0-2-5-2-2-2-0-2-5-2-2-2-0-2-5-2-2-2-0-2-|
C|-2-2-2-0-2-5-2-2-2-0-2-5-2-2-2-0-2-5-2-2-2-0-2-5-2-2-2-0-2-|

Verse:

E|-------------------------------------------------------------|
B|-------------------------------------------------------------|
G|-------------------------------------------------------------|
C|-2-2-2-0-2-5-2-2-2-0-2-5-2-2-2-0-2-5-2-2-2-0-2-5-2-2-2-0-2-5-|
G|-2-2-2-0-2-5-2-2-2-0-2-5-2-2-2-0-2-5-2-2-2-0-2-5-2-2-2-0-2-5-|
C|-2-2-2-0-2-5-2-2-2-0-2-5-2-2-2-0-2-5-2-2-2-0-2-5-2-2-2-0-2-5-|

Riff 1:

E|-----------------------------------------------------------------|
B|-----------------------------------------------------------------|
G|-----------------------------------------------------------------|
C|-12-12-12-12-0-0-12-12-12-12-0-0-12-12-12-12-0-0-12-12-12-12-0-0-|
G|-12-12-12-12-0-0-12-12-12-12-0-0-12-12-12-12-0-0-12-12-12-12-0-0-|
C|-12-12-12-12-0-0-12-12-12-12-0-0-12-12-12-12-0-0-12-12-12-12-0-0-|

Chorus:

E|--------------------|
B|--------------------|
G|--------------------|
C|-2--------0-------0-|
G|-2--------0-------0-|
C|-2--------0-------0-|
Tap to rate this tab
# A B C D E F G H I J K L M N O P Q R S T U V W X Y Z