Song name
# A B C D E F G H I J K L M N O P Q R S T U V W X Y Z

Pod - Lost In Forever tab

P.O.D.: Lost In Forever (Scream)

Transcribed by: mysticguitar77

YouTube Username: MysticGuitar77

Tuning: D Standard (D,G,C,F,A,D)

Riff 1
D|-----------------------|
A|-10/12-15-15\10-10/12~-|
F|-x--x--x--x--x--x--x---|
C|-7//9--12-12\7--7//9~~-|
G|-----------------------|
D|-----------------------|

Riff 2
D|---------------------------|
A|-------------8-8-8-8-8-8-8-|
F|-------------7-7-7-7-7-7-7-|
C|-------------6-6-6-6-6-6-6-| x4
G|-------------7-7-7-7-7-7-7-|
D|-0-0-0-0-0-0---------------|

D|---------------------------|
A|-------------0-0-0-0-0-0-0-|
F|-------------4-4-4-4-4-4-4-|
C|-5-5-5-5-5-5-5-5-5-5-5-5-5-| x2
G|-3-3-3-3-3-3-3-3-3-3-3-3-3-|
D|---------------------------|

D|-------------------------------------------------|
A|-------------------------------------------------|
F|-------------------7-7-7-------------------------|
C|-5-5-5-7-7-7-9-9-9-7-7-7-5-5-5-7-7-7-9-9-9-5-5-5-|
G|-5-5-5-7-7-7-9-9-9-5-5-5-5-5-5-7-7-7-9-9-9-5-5-5-|
D|-3-3-3-5-5-5-7-7-7-------3-3-3-5-5-5-7-7-7-3-3-3-|

Riff 3   "Am I just floating around in this moment of time and space..."
D|---------------------------------------------------------|
A|---------------------------------------------------------|
F|---------------------------------------------------------|
C|---------------------------------------------------------|
G|-7-7-7-7--7-7-7-7-7--7-7-7-7-7--7-7-7-7-7--7-10-10-10-10-|
D|-0-0-0-0--0-0-0-0-0--0-0-0-0-0--0-0-0-0-0--0-0--0--0--0--|

         "It makes me wonder..."
D|------------------------------------------------------------|
A|------------------------------------------------------------|
F|------------------------------------------------------------|
C|------------------------------------------------------------|
G|-10-10-10-10-10--10-10-10-10-10--10-10-10-10-10--10-7-7-7-7-|
D|-0--0--0--0--0---0--0--0--0--0---0--0--0--0--0---0--0-0-0-0-|

         "A state of mind cause I'm just fading away..."
D|--------------------------------------------|
A|--------------------------------------------|
F|--------------------------------------------|
C|--------------------------------------------|
G|-7-7-7-7-7--7-7-7-7-7--7-7-7-7-7--7-5-5-5-5-|
D|-0-0-0-0-0--0-0-0-0-0--0-0-0-0-0--0-0-0-0-0-|

D|---------------------------|
A|---------------------------|
F|---------------------------|
C|---------------------------|
G|-5-5-5-5-5--5-5----------5-|
D|-0-0-0-0-0--0-0-0-5-7--7---|

Play Riff 3 x2   "And my head is lost up in the satellites..."
Play Riff 2 x2   "Eternity is seemingly an endless waiting..."
Play Riff 3 x2   "Am I just hanging around all alone in my mindless haze..."
Play Riff 2 x2   "Eternity is seemingly an endless waiting..."

Riff 4 (clean)   "We live and we die..."
D|-----7-----7---------3-----3---------5-----5-----|
A|---8-----8-----8---5-----5-----5---7-----7-----7-|
F|-9-----9-----9---5-----5-----5---7-----7-----7---|
C|-------------------------------------------------|
G|-------------------------------------------------|
D|-------------------------------------------------|

D|-------12-------10-------|
A|----13-------10-------10-|
F|-12-------11-------11----|
C|-------------------------|
G|-------------------------|
D|-------------------------|

Play Riff 4 x2

Riff 4 ending
D|-----7-----7---------7-----7-|
A|---8-----8-----8---8-----8---|
F|-9-----9-----9---9-----9-----|
C|-----------------------------|
G|-----------------------------|
D|-----------------------------|

Play Riff 2 x2   "Eternity is seemingly an endless waiting..."

Riff 5 (ending)  "It just goes on and on and on..."
D|------------------------------------------------------------------|
A|--------------10/12/15-10/12~-------------------------------------|
F|--------------x--x--x--x--x---------------------------------------|
C|--------------7//9//12-7//9~~----------5-5-5-7-7-7-9-9-9-5-5-5----|
G|-7~------------------------------------5-5-5-7-7-7-9-9-9-5-5-5-7~-|
D|-0~------------------------------------3-3-3-5-5-5-7-7-7-3-3-3-0~-|

That's it for the main guitar parts. Pretty simple song. There are
some overdub guitar parts in the verses and bridge that I didn't tab, but
I just tabbed what he plays live. Feel free to also check out my YouTube 
channel (username at the top) for my cover of this song. Enjoy!




Tap to rate this tab
 
# A B C D E F G H I J K L M N O P Q R S T U V W X Y Z