Song name
# A B C D E F G H I J K L M N O P Q R S T U V W X Y Z

Pod - Murdered Love tab

P.O.D.: Murdered Love

Transcribed by: mysticguitar77

YouTube Channel Username: MysticGuitar77

Date last modified: June 29, 2012

Tuning: Drop D (D,A,D,G,B,E)

Note: This song is trickier than what it sounds and looks. I'm pretty sure
that this is basically what he's playing.

Riff 1
E|-----------------------------------------------------------|
B|-----------------------------------------------------------|
G|-----------------------------------------------------------|
D|-1-1-0-----1-0-3-3-0-----1-0-1-1-0-----1-0-3p0-0-8-8-1-1-1-|
A|-1-1-0--5*-1-0-3-3-0--5*-1-0-1-1-0--5*-1-0-3p0-0-8-8-1-1-1-|
D|-1-1-0-----1-0-3-3-0-----1-0-1-1-0-----1-0-3p0-0-8-8-1-1-1-|

Riff 1a
E|-----------------------------------------------------------|
B|-----------------------------------------------------------|
G|-----------------------------------------------------------|
D|-1-1-0-----1-0-3-3-0-----1-0-1-1-0-----1-0-5-5-5-5-6-6-1-1-|
A|-1-1-0--5*-1-0-3-3-0--5*-1-0-1-1-0--5*-1-0-5-5-5-5-6-6-1-1-|
D|-1-1-0-----1-0-3-3-0-----1-0-1-1-0-----1-0-5-5-5-5-6-6-1-1-|

Note: I'm not sure if this is right, there is crazy effects going on here. 
From what I hear, the intro is played a little different than every other
time this riff is played like during the chorus.

Riff 2 - Distortion
E|-------------------------------------------------------------|
B|-------------------------------------------------------------|
G|--------14------------14------------14-----------------------|
D|-1-1-0--x--1-0-3-3-0--x--1-0-1-1-0--x--1-0-10-10-5-5-6p0-1-1-|
A|-1-1-0--12-1-0-3-3-0--12-1-0-1-1-0--12-1-0-10-10-5-5-6p0-1-1-|
D|-1-1-0-----1-0-3-3-0-----1-0-1-1-0-----1-0-10-10-5-5-6p0-1-1-|

E|-----------------------------------------------------------|
B|-----------------------------------------------------------|
G|--------14------------14------------14---------------------|
D|-1-1-0--x--1-0-3-3-0--x--1-0-1-1-0--x--1-0-5-5-5-5-6-6-7-7-|
A|-1-1-0--12-1-0-3-3-0--12-1-0-1-1-0--12-1-0-5-5-5-5-6-6-5-5-|
D|-1-1-0-----1-0-3-3-0-----1-0-1-1-0-----1-0-5-5-5-5-6-6-----|

Riff 3 w/wah  "The death sentence, capital punishment..."
E|-------------------------------------------------------------|
B|-------------------------------------------------------------|
G|-------------------------------------------------------------|
D|-------------------------------------------10-10-9-9-7-7-5-5-|
A|---5h6p5\3/5---5h6p5\3/5---5---5h6p5\3/5---8--8--7-7-5-5-3-3-|
D|-0-----------0-----------0---0-----------0-------------------|

E|--------------------------------------------------------|
B|--------------------------------------------------------|
G|--------------------------------------------------------|
D|-------------------------------------------1-0-1-6-5-10-|
A|---5h6p5\3/5---5h6p5\3/5---5---5h6p5\3/5---1-0-1-6-5-10-|
D|-0-----------0-----------0---0-----------0-1-0-1-6-5-10-|
                                             * * * * * *

Play Riff 3 x2   "Exterminate the absolute..."
Play Riff 1a
Play Riff 2      "The day that they murdered love!"
Play Riff 3 x2   "Eliminate the infinite..."
Play Riff 1a
Play Riff 2 x2   "The day that they murdered love!"

Riff 4 - Guitar 1 (w/ phaser type effect)
E|----------------------|
B|----------------------|
G|----------------------|
D|----------------3p2---| x4 (I think)
A|---5--5---5-5-------3-| 
D|-0------0-----0-------|

Riff 4a - Guitar 1
E|------------------------|
B|------------------------|
G|------------------------|
D|----------------3p2-----| this repeats under the lead guitar
A|---5--5---5-5-------3/5-| until they both come together to play this riff.
D|-0------0-----0---------|

Riff 4a - Guitar 2 (lead w/delay and probably other effects)
E|----------------------------|
B|----------------------------|
G|---------7~---9~---10~------|
D|-7~----7---------------10~--|
A|----------------------------|
D|----------------------------|

E|----------------------------------------|
B|----------------------------------------|
G|----------------------------------------|
D|-7~----7\5~----5\3~----3\2~--0--3p2-----|
A|------------------------------------3/5-|
D|----------------------------------------|

Riff 5   "Don't forget me while you step into your glory..."
E|---------------------------|
B|---------------------------|
G|---------------------------|
D|-------------------3p2-----|
A|----5--5----5-5--------3/5-|
D|-0--0--0--0-0-0--0---------|
   *  *  *  * * *  *

Play Riff 5 x8    "Remember me while you step into your glory..."

Note: After the 4th time around, play un-palm muted for the final 4 times.

The final chorus is the same as before except slightly different. 
After the first part there is a pause (you'll hear it in the song, he doesn't
play the little ending fill) and then he continues with that part removed and
that is all! 



Tap to rate this tab
# A B C D E F G H I J K L M N O P Q R S T U V W X Y Z