Song name
# A B C D E F G H I J K L M N O P Q R S T U V W X Y Z

Pod - Checkin Levels tab

                        P.O.D.---Checkin' Levels
Tabbed by:PodFan#1
E-Mail:FlameRdDrgn@aol.com

Tuning:Tune down 1 step(low to high)D-G-C-F-A-D

Start when "Yo,Sonny" is spoken
D|--------------------|-------------------|----------------------|
G|--------------------|-------------------|----------------------|
C|--------------------|-------------------|----------------------|
F|--------2--0--------|-------------------|--------2--0-------202|
A|-----2--------3-----|-------------------|-----2--------3-------|
D|--0-----------------|-------------------|--0-------------------|


D|--------------------|----------|----------------------|
G|--------------------|----------|----------------------|
C|--------------------|----------|----------------------|
F|--------2--0--------|----------|--------2--0-------202|
A|-----2--------3-----|----------|-----2--------3-------|
D|--0-----------------|----------|--0-------------------|


D|-------------------|--------------------|---------------------------------|
G|----------3--------|--------------------|----------3----------------------|
C|------4------5---4-|--------------------|------4-------5---4-----545---424|
F|--2----------------|--------------------|--2------------------------------|
A|-------------------|--------------------|---------------------------------|
D|-------------------|--------------------|---------------------------------|


D|-------------------|--------------------|---------------------------------|
G|----------3--------|--------------------|----------3----------------------|
C|------4------5---4-|--------------------|------4-------5---4-----545---424|
F|--2----------------|--------------------|--2------------------------------|
A|-------------------|--------------------|---------------------------------|
D|-------------------|--------------------|---------------------------------|


D|-------------------|
G|-------------------|
C|-------------------|
F|---------2---0-----|
A|------2----------3-|
D|--0----------------|

  *Begin Fade                                                    *Fade Out 
D|-----------------------|--------------------|-----------------|----------|
G|-----------------------|--------------------|-----------------|----------|
C|-----------------------|--------------------|-----------------|----------|
F|--------2--0-------202-|--------------------|--------2--0-----|----------|
A|-----2--------3--------|--------------------|-----2--------3--|----------|
D|--0--------------------|--------------------|--0--------------|----------|
Tap to rate this tab
# A B C D E F G H I J K L M N O P Q R S T U V W X Y Z