Song name
# A B C D E F G H I J K L M N O P Q R S T U V W X Y Z

Pod - Coming Back tab

Band- Pod
Song- Coming Back

Tuning: Standard (E A D G B E)



Intro:
E|---------------------------------------------------------------------||
B|---------------------------------------------------------------------||
G|---------------------------------------------------------------------||
D|-----------9-11--11h12p11-9------------------------------------------||
A|----------------------------11-10h11p10-9-7--------------------------||
E|-7-9--7-9-----------------------------------7p9----------------------||

VERSE:
E|---------------------------------------------------------------------||
B|---------------------------------------------------------------------||
G|---------------------------------------------------------------------||
D|-------11-------------------------11---------------------------------||
A|--------------7-9-10-9-7-----------------7-9-10-9-7------------------||
E|-9-9-9----9-9------------7-9-9-9-----9-9-----------------------------||

CHORUS:
E|---------------------------------------------------------------------||
B|---------------------------------------------------------------------||
G|---------------------------------------------------------------------||
D|-------------7-6-------------7-6-------------------------------------||
A|-9-10-10-7-7-----9-10-10-7-7-----------------------------------------||
E|----------------------------------9----------------------------------||

BRIDGE:
E|---------------------------------------------------------------------||
B|---------------------------------------------------------------------||
G|---------------------------------------------------------------------||
D|----------------------------------------------7-6--------------7-6---||
A|-----7h9p7-----7h9p7-----7h9p7---9-9-9-9-10-7-----9-9-9-9-10-7-------||
E|-9-9-------9-9-------9-9-------------------------------------------9-||
Tap to rate this tab
# A B C D E F G H I J K L M N O P Q R S T U V W X Y Z