Song name
# A B C D E F G H I J K L M N O P Q R S T U V W X Y Z

Pod - Reggae Jam tab

-------------------------------------------------------------------------------
			     Reggae Jam - P.O.D.
-------------------------------------------------------------------------------
P.O.D.(BEST BAND)
Reggae Jam
Album:Brown
Tabbed by: Josh
Email:nc48495158789698@yahoo.com

Tuning: Standard

I know this song is very old from a very old album(It still freakin rock),
but I just figured it out and no one else has this tab so I submitted it.

Repeat this through out the whole song
e|--------33---3-------------------------------------------------------------|
B|--------33---3-------------------------------------------------------------|
G|--------33---3-------------------------------------------------------------|
D|------------------------6--------------------------------------------------|
A|-----------------33-3335---------------------------------------------------|
E|-----33----3----3----------------------------------------------------------|
Tap to rate this tab
 
# A B C D E F G H I J K L M N O P Q R S T U V W X Y Z