Song name
# A B C D E F G H I J K L M N O P Q R S T U V W X Y Z

Pod - Guitarras De Amor tab

Artist: P.O.D
Song: Guitarras de Amor
Guitarist: Marcos Curiel

Guitar 1 (Intro/Outro)(0:08)
------------------------/-------------------------------|
------------------------/------------------------0------|
--------0---------------/--------0-------------0---0----|
------2---2--------2~---/------2---2---------2-------2--|
----2-------2----2------/----2-------2-----2------------|
--0------------0--------/--0-------------0--------------|
                      x3
Guitar 2(0:08)
---------------------------|
---------------------------|
-------------7-7-7---------|
----9~---9-9-------10-10---|
--7----7-------------------|
---------------------------|

-------------------------------------|
-------------------------------------|
---------------7-7-------------------|
----9~-------9-----10-10-9-9-10-10---|
--7----7-7-7-------------------------|
-------------------------------------|
This next part is played simultaneously with Guitar 3. Repeat it twice.
-----------------------------------------------------|
-----------------------------------------------------|
-----------------------------------------------------|
-----------------------------------------------------|
--7-7--7-7-7-5---------------------------------------|
---------------8-8h10-10--10-10-10-8h10p8/7-8h10-10--|

---------------------------|
---------------------------|
---------------------------|
---------------------------|
---------------------------|
--10-10-10-8-7-7h8-7-0~----|

Guitar 3(0:23)
------------------------------------|
-12~-12-12-12-13-13-13/15--15p13p12-|
------------------------------------|
------------------------------------|
------------------------------------|
------------------------------------|

-------------------------------------|
-13-12-10--10-12-13-12--10-12--10----|
---------------------------------12--|
-------------------------------------|
-------------------------------------|
-------------------------------------|

----------------------------------------------------------|
-12-13~--12-13-15-13---10/12------------------------------|
--------------------14-------14-12--14-14-14-12-----------|
-----------------------------------------------15-14~-----|
----------------------------------------------------------|
----------------------------------------------------------|

--------------------------------------------------|
--------------------------------------------------|
-------12-----------------------------------------|
--14-15--15-14h15h14/12-14h15-14~-14h15-14~-------|
--------------------------------------------------|
--------------------------------------------------|

Outro(Guitar 1)(0:53)
------------------------/-------------------------------|
------------------------/------------------------0------|
--------0---------------/--------0-------------0---0----|
------2---2--------2~---/------2---2---------2-------2--|
----2-------2----2------/----2-------2-----2------------|
--0------------0--------/--0-------------0--------------|
                      x3
Guitar 2
--------------------------------|
--------------------------------|
--------------------------------|
------------7-7-----------------|
----9~----9-----10-10-9-9-10-10-|
--7-----7-----------------------|
--------------------------------|
(This lick is played until the record fades out)

Great instrumental off the Satellite album. Enjoy.
Tap to rate this tab
# A B C D E F G H I J K L M N O P Q R S T U V W X Y Z