Guitaretab - guitar tabs
Song name
# A B C D E F G H I J K L M N O P Q R S T U V W X Y Z

Pod - Payable On Death tab

Band- P.O.D.
Album- Payable On Death

This album rocked!!!I love P.O.D.'s new sound.

1.Wildfire
2.Will You
3.Change The World
4.Execute The Sounds
5.Find My Way
6.Revolution
7.The Reasons
8.Freedom Fighters
9.Waiting On Today
10.I And Identify
11.Asthma
12.Eternal

1.WILDFIRE

Fig. 1
D|------------------------------------|
A|------------------------------------|
F|------------------------------------|
C|-9-9-9-5-5-5-0~--8-8-8-5-1~---------|
G|-9-9-9-5-5-5-0~--8-8-8-5-1~-x-6-3-x-|
C|-9-9-9-5-5-5-0~--8-8-8-5-1~-x-----x-|

D|------------------------------------|
A|------------------------------------|
F|------------------------------3-----|
C|-9-9-9-5-5-5-0~--8-8-8-5-1~---1-----|
G|-9-9-9-5-5-5-0~--8-8-8-5-1~-x-1-----|
C|-9-9-9-5-5-5-0~--8-8-8-5-1~-x-1-----|

Fig. 2
D|------------------------------------|
A|------------------------------------|
F|------------------------------------|
C|------------------------------------|
G|-9-9-9-9-9-9-------8-8-8-8-8-8------|
C|-9-9-9-9-9-9�12*^--8-8-8-8-8-8-13^--|
   . . . . . .       . . . . . .

Fig.1
D|--------------------------------------------------|
A|--------------------------------------------------|
F|-8-8-8--8~-----------/11-11-11--11~-11-11-11--11~-|
C|-9-9-9--9~-4-4-4--4~-/12-12-12--12~-13-13-13--13~-|
G|-9-9-9--9~-5-5-5--5~-/12-12-12--12~-12-12-12--12~-|
C|-----------5-5-5--5~------------------------------|

D|----------------------------------------------------------------------------------
A|----------------------------------------------------------------------------------
F|-8-8-8-8-8-8-8-8-----------------/11-11-11-11-11-11-11-11-11-11-11-11-11-11-11-11-
C|-9-9-9-9-9-9-9-9-4-4-4-4-4-4-4-4-/12-12-12-12-12-12-12-12/13-13-13-13-13-13-13-13-
G|-9-9-9-9-9-9-9-9-5-5-5-5-5-5-5-5-/12-12-12-12-12-12-12-12-12-12-12-12-12-12-12-12-
C|-----------------5-5-5-5-5-5-5-5--------------------------------------------------

2.WILL YOU

Tuning: One Step Down


Intro:
D|----------------------------------------------|
A|----------------------------------------------|
F|--11---14----11---14----9--------7-7-7-6---7--|
C|------------------------10---------------7----|  x2
G|--9----14----9----12----10--------------------|
D|-------------10---10----8----5----------------|


Verse:
D|-----------------------------------------------------|
A|-----------------------------------------------------|
F|-------------------------------4-4-4--------2-2-2-4--|
C|--9------------5------------2--------2---2-----------|  x4
G|--7--7-9-9-9---3--5-5-7-7---0------------0-----------|
D|-----------------------------------------------------|


Intro:  x2


Verse:  x4


Intro:  x4


Bridge:
D|--------|   |--0~------------------0~--|
A|--------|   |--0~---5-8-7-0--------0~--|
F|--------|   |--9~-------------6h7--6~--|
C|---10---|   |--9~-----------7------7~--|
G|---8----|   |--7~-----------0------0~--|
D|--------|   |--------------------------|

D|-----0~-------0~-------0~--|
A|-----0~-------0~-------0~--|
F|-----9~-------5~-------6~--|
C|-----9~-------5~----7--7~--|  x2
G|--7--7~----3--3~----0--0~--|
D|---------------------------|


Intro:  x4


Outro:
D|-------------------------------------------------------------------|
A|-------------------------------------------------------------------|
F|--11-11---11-11----11-11---11-11----9--9----9--9-------7-6----7-6--|
C|------------------------------------10-10---10-10------------------|  x2
G|--9--9----9--9-----9--9----9--9-----10-10---10-10------------------|
D|-------------------10-10---10-10----8--8----8--8-----5------5------|

D|---------|
A|---------|
F|---11~---|
C|---------|
G|---9~----|
D|---------|

3.CHANGE THE WORLD

intro/chorus-distortion x2
d----------------------------------------------------------
a----------------------------------------------------------
f----------------------------------------------------------
c-3-3-3-3-0-010101010101010-3-3-3-3-0-010101010101010------
g-3-3-3-3-0-0-8-8-8-8-8-8-8-3-3-3-3-0-0-8-8-8-8-8-8-8------
c-3-3-3-3-0-0-8-8-8-8-8-8-8-3-3-3-3-0-0-8-8-8-8-8-8-8------

continued
d----------------------------------------------------------
a----------------------------------------------------------
f----------------------------------------------------------
c-7-7-7--7-7-7-9-9-9-9-9-9-9-101010-101010-12121212121212--
g-5-5-5--5-5-5-5-5-5-5-5-5-5-8-8-8 8-8-8 8-8-8-8-8-8-8---
c-5-5-5--5-5-5-5-5-5-5-5-5-5-8-8-8- 8-8-8 8-8-8-8-8-8-8---

riff 1&2
d----------------------------------------------------------
a----------------------------------------------------------
f-------9-9-99-101010-10-14-14-14------------------------
c-0-0-0----------------------------------------------------
g-0-0-0-7-7-778-8-8-8-12-12-12------------------------
c-0-0-0----------------------------------------------------

continued x3
d----------------------------------------------------------
a----------------------------------------------------------
f-14-14-1414-----10-10-1010----9-9-9---------------------
c----------------------------------------------------------
g-12-12-1212-----8---8-8-8----7-7-7---------------------
c----------------------------------------------------------
interlude
d----------------------------------------------------------
a----------------------------------------------------------
f----------------101010-121212-141414-171717---------------
c-1012-7-9-------------------------------------------------
g-8-8-5-5x2----8-8-8-101010-121212-151515---------------
c-8-8-5-5-------------------------------------------------
continued x2
d----------------------------------------------------------
a----------------------------------------------------------
f--------10------------------------------------------------
c-3-0-3-0------7-7-7-7-7-7-7-----------------------------
g-3-0-3-0-8-x2-5-5-5-5-5-5-5-x2--------------------------
c-3-0-3-0------5-5-5-5-5-5-5-----------------------------
then
d----------------------------------------------------------
a----------------------------------------------------------
f---------10-----------------------------------------------
c-3-0-3-0----3-0-pm-2-0-3-2-0-3-7-7-7-7-7-7-7------------
g-3-0-3-0-8-3-0-pm-2-0-3-2-0-3-5-5-5-5-5-5-5-x2---------
c-3-0-3-0----3-0-pm-2-0-3-2-0-3-5-5-5-5-5-5-5------------

end x2
d----------------------------------------------------------
a----------------------------------------------------------
f--------10------------------------------------------------
c-3-0-3-0--------------------------------------------------
g-3-0-3-0-8------------------------------------------------
c-3-0-3-0--------------------------------------------------

4.EXECUTE THE SOUNDS

INTRO
E--------------------------------------------------------------
B--------------------------------------------------------------
G--------------------------------------------------------------
D-----3----3---3----3---3-----3---3----3-----------------------
A---3--0-3---3--0-3---4---1-4---4--1-4------------------------- REPEAT
D--------------------------------------------------------------
verse is the same like intro

CHORUS
E----------------------------------------------------------------
B------------------------------------------------------------------
G------------------------------------------------------------------
D----3-3-3-5--3-3-3-5--6-6-6-8-5-5-5-5-5--------------------------
A----3-3-3----3-3-3----6-6-6---5-5-5-5-5--------------------------
D----3-3-3----3-3-3----6-6-6---5-5-5-5-5----------------------------

BRIDGE
E----------------------------------------------------------------
B----------------------------------------------------------------
G----------------------------------------------------------------
D---------------3-3--6-6------------------------------------------
A----3-4-3-1-3--3-3--6-6---3-4-3-1-3---4-4------------------------
D---------------3-3--6-6-------------------4-4-------------------- REPEAT

OUTRO IS THE SAME LIKE INTRO.

5.FIND MY WAY
[ Tab from: http://www.guitaretab.com/p/pod/54477.html ]
(0:00) intro
d|--------------------------------------------| 
A|--------------------------------------------|
F|--------------------------------------------|
C|-99999------9-9-----------77777---------5-5-|  x2
G|-77777-10---7-7---10-10---77777---5-5---3-3-|
D|-------8--x------x-8--8-x-55555-x-3-3-x-----|
  
(0:12) verse
d|-------2-----------------|--------------------------|
A|---------3---------7-(8)-|--------------------------|
F|---4---------4-0---------|-5h7-4--5h7-4--5h7-4--4-0-|
C|-------------------------|--------------------------|  x4
G|-----3-----5-------------|--------------------------|
D|-0---------------5-------|--------------------------|
 
 (0:36) chorus (I)
d|--------------------------------------------| 
A|--------------------------------------------|
F|--------------------------------------------|
C|-99999------9-9-----------77777---------5-5-|  x2
G|-77777-10---7-7---10-10---77777---5-5---3-3-|
D|-------8--x------x-8--8-x-55555-x-3-3-x-----|
  
(0:48) chorus (II)
d|----------------------------------------------------|
A|-1010101010-9-10101010-9-10101010-9-11111111-131313-|
F|-9-9-9-9-9--8-9-9-9-9--8-9-9-9-9--8-10101010-121212-|
C|-7-7-7-7-7--5-7-7-7-7--5-7-7-7-7--5-8-8-8-8--101010-|  x2
G|----------------------------------------------------|
D|----------------------------------------------------|
  
(1:00) verse
d|-------2-----------------|--------------------------|
A|---------3---------7-(8)-|--------------------------|
F|---4---------4-0---------|-5h7-4--5h7-4--5h7-4--4-0-|
C|-------------------------|--------------------------|  x5
G|-----3-----5-------------|--------------------------|
D|-0---------------5-------|--------------------------|
  
(1:29) chorus (I)
d|--------------------------------------------| 
A|--------------------------------------------|
F|--------------------------------------------|
C|-99999------9-9-----------77777---------5-5-|  x2
G|-77777-10---7-7---10-10---77777---5-5---3-3-|
D|-------8--x------x-8--8-x-55555-x-3-3-x-----|
  
(1:41) chorus (II)
d|----------------------------------------------------|
A|-1010101010-9-10101010-9-10101010-9-11111111-131313-|
F|-9-9-9-9-9--8-9-9-9-9--8-9-9-9-9--8-10101010-121212-|
C|-7-7-7-7-7--5-7-7-7-7--5-7-7-7-7--5-8-8-8-8--101010-|  x2
G|----------------------------------------------------|
D|----------------------------------------------------|
  
(1:53) bridge
d|---------------------------------------------|
A|---------------------------------------------|
F|---------------------------------------------|
C|-9999-5-2-----------10101010-5-5-7777-101010-|  x2
G|-9999-5-2--2---2----10101010-5-5-7777-101010-|
D|-7777-3-0---3-0-3-0-8-8-8-8--3-3-5555-8-8-8--|
  
(2:05) ;)
d|-------------------------------------------------------|
A|-------------------------------------------------------|
F|-----------------------555-------------------------444-|
C|-101010-777-5----5---5-555-------------------5---5-444-|  x2
G|-101010-777-5----5---5-333-------2-----2-2---5---5-222-|
D|-8-8-8--555-3--x-3-x-3-------0-3~---0-3--0---3-0-3-----|
  
(2:17)
d|------------------------------------------|
A|-1010101010-9-10101010-9-10101010-9-11-13-|
F|-9-9-9-9-9--8-9-9-9-9--8-9-9-9-9--8-10-12-|
C|-7-7-7-7-7--5-7-7-7-7--5-7-7-7-7--5-8--10-|  x2
G|------------------------------------------|
D|------------------------------------------|
  
(2:23) 
d|--------------------------------------------| 
A|--------------------------------------------|
F|--------------------------------------------|
C|-99999------9-9-----------77777---------5-5-|  x2
G|-77777-10---7-7---10-10---77777---5-5---3-3-|
D|-------8--x------x-8--8-x-55555-x-3-3-x-----|
  
(2:34) 
d|----------------------------------------------------|
A|-1010101010-9-10101010-9-10101010-9-11111111-131313-|
F|-9-9-9-9-9--8-9-9-9-9--8-9-9-9-9--8-10101010-121212-|
C|-7-7-7-7-7--5-7-7-7-7--5-7-7-7-7--5-8-8-8-8--101010-|  x2
G|----------------------------------------------------|
D|----------------------------------------------------|

(2:46)
d|---------------------------------------------|
A|---------------------------------------------|
F|---------------------------------------------|
C|-9999-5-2-----------10101010-5-5-7777-101010-|  x2
G|-9999-5-2--2---2----10101010-5-5-7777-101010-|
D|-7777-3-0---3-0-3-0-8-8-8-8--3-3-5555-8-8-8--|
  
(2:58) ending
d|-------2------------------|
A|---------3------------7-8-|
F|---4----------4-74--------|
C|--------------------------|
G|-----3------5-------------|
D|-0------------------5-----|

6.REVOLUTION

intro and verse           chorus
            
D|0000---000300--3333--5555|  D|0--3--5--5--0--3--5--5---7--3--5-----3---- 
A|0000---000300--1111--5555|  A|0--3--5--3--0--3--5--3---5--3--5--3-5--5-3
D|0000---000300--------5555|  D|0--3--5-----0--3--5---------3--5----------


                         Solo( i only no part of it)
|------------------------------------------------------------------------|
|------------------------------------------------------------------------|
|------------------------------------------------------------------------|
|17*-16*-14*--12*-15*-15*-17*-19*-15*---------14*-12*-12*-15*-17*-19*-17*|
|-------------------------------------15*-17*----------------------------|
|------------------------------------------------------------------------|

|--------------------------------------------------------------------------|
|--------------------------------------------------------------------------|
|------------------------------------17*-14*-14*-17*-14*-------------------|
|17*-16*-19*-15*-14*-12*-14*-15*-17*-------------------17*-15*-------------|
|------------------------------------------------------------17*-15*-------|
|-------------------------------------------------------------------17*-10*|


                        Solo (continued)
|--------------------------------------------------------------------------|
|--------------------------------------------------------------------------|
|--------------------------------14*---------------------------------------|
|------------------------15*-17*------19*--19*-17*---17*-15*---------------|
|17*-15*-17*-17*-15*-17*-----------17*--17*-------17*-------17*-15*-----17*|
|-----------------------------------------------------------------17*-15*--|

THIS IS ALL OF THE SOLO I NO AFTER THE SOLO FINISHES FINISH THE REST OF THE 
SONG WITH THE CHORUS

7.THE REASONS

Intro/Verse
(0:02 - 0:30)
E|--------0-----------0----------|
B|-------------------------------|
G|---7------7-----7-----7--------| x12  
D|-7----7-----7-----7------------|
A|-------------------------------|
D|-------------------------------|

Pre-chorus
(0:30 - 0:48)
E|-------------------------8888-5555---5555-------|
B|-5555-6666---5555-6666--------------------6666--|
G|------------------------------------------------|  x2
D|------------------------------------------------| 
A|------------------------------------------------|
D|------------------------------------------------|

Verse
(0:48 - 1:02)                         (1:02 - 1:07)
E|--------0-----------0----------|    |--------0----------------------------------------|
B|-------------------------------|    |--------------------6-----------6-----------6----|
G|---7------7-----7-----7--------| x6 |---7------7-----7-----7-----7-----7-----7-----7--|
D|-7----7-----7-----7------------|    |-7----7-----7-----7-------7---7-----7-----7------|
A|-------------------------------|    |-------------------------------------------------|
D|-------------------------------|    |-------------------------------------------------|

Chorus
(1:25 - 1:43)                                                 |     [12]     |
E|----------------------------------------88888888-55555555---1212121212121212-88888888-----|
B|-55555555-66666666---55555555-66666666----------------------------------------------------|
G|------------------------------------------------------------------------------------------|
D|------------------------------------------------------------------------------------------|
A|------------------------------------------------------------------------------------------|
D|------------------------------------------------------------------------------------------|

Bridge
(1:44 - 2:20)
E|-----------------------------------------|
B|-----------------------------------------|
G|------9\5-------9\5------7\2-------2/5---| x4
D|------9\5-------9\5------7\2-------2/5---|
A|---7---------5--------3---------3--------|
D|-7---------5---------3---------3---------|


Ending
(2:57 - 3:09)         |quite| 
E|-----------3----3------------3------------------------------------|
B|-----------1------1----------1------------------------------------|
G|-------5\----------------0----------------------------------------|
D|-------5\--------------0----------555\3--333\1--111\0--000h1p0----|
A|---------------------0-----------------------------------------3--|
D|-0-2-3------------------------------------------------------------|

(3:09 - 3:20)                
E|-----------3----3--3-5----------------------|
B|-----------1----1---------------------------|
G|-------5\-----------------------------------|
D|-------5\----------------555\333/777\333~---|
A|--------------------------------------------|
D|-0-2-3--------------------------------------|

(3:20 - 3:32)         |quite| 
E|-----------3----3------------3------------------------------------|
B|-----------1------1----------1------------------------------------|
G|-------5\----------------0----------------------------------------|
D|-------5\--------------0----------555\3--333\1--111\0--000h1p0----|
A|---------------------0-----------------------------------------3--|
D|-0-2-3------------------------------------------------------------|

(3:32 - end)
E|-------3~---|
B|-------1~---|
G|-------2----| x4
D|-------0----|
A|------------|
D|-0-2-3------|

8.FREEDOM FIGHTERS

DON'T KNOW YET

9.WAITING ON TODAY

Intro/Chorus riff
  D -------------------------------------------------------------------/
  A -------------------------------------------------------------------/
  F 14-14-14-14-------14-14-14-14-------\9-9-9-9-------9-9-9-9---------/
  C 14-14-14-14-------14-14-14-14-------\9-9-9-9-------9-9-9-9---------/
  G 12-12-12-12-------12-12-12-12-------\7-7-7-7-------7-7-7-7---------/
  D 13-13-13-13-------12-12-12-12-------\8-8-8-8-------8-8-8-8---------/


    Verse riff
  D --------------------------------------------------------|
  A --------------------------------------------------------|
  F --------------------------------------------------------|
  C --------2h3p2p0---------2h3p2p0---------2h3p2p0---------|
  G 3-3-3-3---------3-3-3-3---------2-2-2-2---------2-2-2-2-|
  D 1-1-1-1---------1-1-1-1---------0-0-0-0---------0-0-0-0-|
    . . . .         . . . .         . . . .         . . . .

   I'm just going to show the riff going from the chorus on the 2 strings that use it.

    Riff before chorus
  A -------------------------------------------12-----------------------|
  F 12-12-12-12-12---14---12-12-12-12-12---14-----12-12-12-12-12---14---|

  A ------------15--14--10--12-----/
  F 12h14p12h14-----------------12-/

10.I AND IDENTIFY

DON'T KNOW YET

11.ASTHMA

WITH DELAY

D------------------------------------------------------------------------------------
A------------------------------------------------------------------------------------
F------------------------------------------------------------------------------------
C---------7h8-7----7-8p7-5----5-------7h8-7---12-12\\7-7/10-10\\5--5-----5------------
G------0-------------------5-------0---------------------------------5---------------
C---0-------------------5-------0---------------------------------5------------------


12.ETERNAL

DON'T KNOW YET

ENJOY!!!
Related for Payable On Death tab