Song name
# A B C D E F G H I J K L M N O P Q R S T U V W X Y Z

Pod - Preach tab

Band- Pod
Song- Preach

Drop D


Verse-(Distortion)	
E---------16~----16-----------|
B-17-16-------------16-17~----|
G-----------------------------|               don?t know if the verse is correct 
D-----------------------------|
A-----------------------------|
D-----------------------------|

Verse 2-(Distortion)
E-----------------|
B-----------------|
G-----------------|
D-0-0-0-0---0~~---|
A-0-0-0-0---0~~---|
D-0-0-0-0---0~~---|
P.M??....

Breakdown-(Distortion)
E---------------------------------------------------------------------------|
B---------------------------------------------------------------------------|
G---------------7---------------5---------------------------------------------|
D-0-0-0-0-0-0---5-0-0-0-0-0-0---3-6-5-0-0-0-0-0-0---3-0-0-0-0-0-0---3-5-6---|
A-0-0-0-0-0-0---5-0-0-0-0-0-0---3-6-5-0-0-0-0-0-0---3-0-0-0-0-0-0---3-5-6---|
D-0-0-0-0-0-0-----0-0-0-0-0-0-----6-5-0-0-0-0-0-0---3-0-0-0-0-0-0---3-5-6---|
P.M????......     ???........         ????.......     ???........
Tap to rate this tab
# A B C D E F G H I J K L M N O P Q R S T U V W X Y Z