Song name
# A B C D E F G H I J K L M N O P Q R S T U V W X Y Z

Pod - Roots In Stereo Live tab

 "Roots in Stereo" (Live, pre-Testify release)
  by Payable On Death (P.O.D.)
  Testify (2006/Atlantic/3 Points)
  
  
  Transcribed by Zak Hall
  
  Tuning: Drop-D, down one-step (C-G-C-F-A-D)
  

  Verse 1:
  D|-------------------------------------------|
  A|-------------------------------------------|
  F|-------------------------------------------|
  C|-5_5--35-35--35--3553-5-5--35-35--35-3550--|
  G|-5_5---------------------------------------|
  C|-5_5---------------------------------------|

  D|-------------------------------------------||-(to chorus)--------------||
  A|-------------------------------------------||--------------------------||
  F|-------------------------------------------||--------------------------||
  C|-0_0---------------------------------------||--0_-----(5)--||
  G|-0_0--35-35--35--3553-5-5--35-35--35-3535--||--------0_-----------(5)--||
  C|-0_0---------------------------------------||--------0_-----------(5)--||

  Chorus:
  
  gtr1
  D|------------|---------------||
  A|------------|---------------||
  F|------------|---------------||
  C|-75073____--|-7507_305_0____||
  G|-75073____--|-7507_305_0____||
  C|-75073____--|-7507_305_0____||
  
  gtr2
  D|--------------------------------------||
  A|--8_____10__--------------------------||
  F|------------9____9109------9109-------||
  C|--5_____7___---------107--7----107__--||
  G|------------7_____________------------||
  C|--------------------------------------||
  
  To Bridge:
  D|------------------------------------------3__33-||
  A|------------------------------------------3__33-||
  F|--910-9-9--9--910-9-9-9--910-9-9----------5__55-||
  C|--------------------------------1010--0-0-5__55_||
  G|--7-8-7-7--7--7-8-7-7-7--7-8----------0-0-3__33_||
  C|--------------------------------------0-0-3__33_||
  
  Bridge:
  
    gtr1:
  D|-----------------------------------3__33-|
  A|-----------------------------------3__33-|
  F|--9\-------9\--------9\------------5__55-|
  C|---\0--0----\0--0-----\0--0----0-0-5__55-|
  G|--7\0--0---7\0--0----7\0--0----0-0-3__33-|
  C|---\0--0----\0--0-----\0--0----0-0-3__33-|

    gtr2:
  D|--------------------------------------------------||
  A|--------------------------------------------------||
  F|--910-9-9--9--910-9-9-9--910-9-9------121212_1212_||
  C|--------------------------------------------------||
  G|--7-8-7-7--7--7-8-7-7-7--7-8-7-7------101010_1010_||
  C|--------------------------------------------------||
  
  Outro:

  D|-------------------------------------||
  A|-------------------------------------||
  F|---------------------------7________-||
  C|--0______7________3________5________-||
  G|--0______7________3________3________-||
  C|--0______7________3________0________-||

Tap to rate this tab
 
# A B C D E F G H I J K L M N O P Q R S T U V W X Y Z