Song name
# A B C D E F G H I J K L M N O P Q R S T U V W X Y Z

Pod - I And Identify tab

"I and Identify"
POD

Tabber: Kenny Burgess 
Email: Kenny111887@aol.com

I cant believe no one has tabbed this song.

tuning: CGCFAD

D:-------------------------|
A:-------------------------|
F:------------------6-7-6--|
C:--4-0--4-0-0-4-----------|
G:--4-0--4-0-0-4----4/5\4--|
C:--4-0--4-0-0-4--0--------|

D:-------|
A:-------|
F:-------|
C:--7-0--|
G:--7-0--|
C:--7-0--|

D:--------------------------|
A:--------------------------|
F:------------------6----6--|
C:--7-0-6-0-0-7-0---x----x--|
G:--7-0-6-0-0-7-0---4----4--|
C:--7-0-6-0-0-7-0------0----|

havent done all of the chorus yet. email me if you want me to finish it.

D:-------------------------|
A:-------------------------|
F:------------------6-7-6--|
C:--4-0--4-0-0-4-----------|
G:--4-0--4-0-0-4----4/5\4--|
C:--4-0--4-0-0-4--0--------|

D:-----------------------|
A:-----------------------|
F:----------------6-7-6--|
C:--4-4-4-4-0------------|
G:--4-4-4-4-0-----4/5\4--|
C:--4-4-4-4-0---0--------|
Tap to rate this tab
# A B C D E F G H I J K L M N O P Q R S T U V W X Y Z