Song name
# A B C D E F G H I J K L M N O P Q R S T U V W X Y Z

Pod - Sounds Like War tab

This is the freakin sweetest song on the whole album (at least I think).  the other tabs 
saw were wrong.  Its fun to play right

Tabbed by: Guitarfreakk

Tuning: Drop C

Intro
D|---------------------------------------------------|
A|---------------------------------------------------|
F|---------------------------------------------------|
C|--------------------------1-0--0--0--0--0-0-1-2----|
G|--------------------------1-0--0--0--0--0-0-1-2----|
C|-1-0--0--0--0--0-0-1-2----1-0--0--0--0--0-0-1-2----|

Verse and Riff
   C# C    C    C    C    C  C  C# D
D|--------------------------------------|
A|--------------------------------------|
F|--------------------------------------|
C|-1--0----0----0----0----0--0--1--2----|
G|-1--0----0----0----0----0--0--1--2----|
C|-1--0----0----0----0----0--0--1--2----|

D|---------------------------------------|
A|---------------------------------------|
F|---------------------------------------|
C|-5----5-5-1----5-5-8----5-5-1------/3--|
G|-5----5-5-1----5-5-8----5-5-1------/3--|
C|-5----5-5-1----5-5-8----5-5-1------/3--|


| /  slide up
|   slide down
| h  hammer-on
| p  pull-off
| ~  vibrato
| +  harmonic
| x  Mute note
============================================================================
Tap to rate this tab
 
# A B C D E F G H I J K L M N O P Q R S T U V W X Y Z