Song name
# A B C D E F G H I J K L M N O P Q R S T U V W X Y Z

Poe - Trigger Happy Jack tab

Tabbed by Largebehind


Intro(clean):
--------------------------|-----8---8---6-6--|
--------6-5---------------|-------------6-6--|
--------5-5-----------3---|--/8---8---7------|   X2
-------------------2------|------------------|
---3----------------------|------------------|
---------------4----------|------------------|
     

Chorus:(distorted)
|---------------------------------------------|
|---------------------------------------------|
|*-------------------------------------------*|
|*------------0-1-2--------------------------*|
|---5-7-8-----1-2-3---2-3-4-5-6--2-3-4-4-4----|
|---6-6-7-------------0-1-2-3-4--1-2-3-3-3----|
(mute 1st 3)


"Trigger happy Jack..."
|------------------------------------------------------------------------------|
|------------------------------------------------------------------------------|
|--7--7--7----7--7--7----7--7--7----7--6--5----5--5--5----5--5--5----5--5--5---|
|--8--8--8----8--8--8----8--8--8----8--7--6----6--6--6----6--6--6----6--6--6---|
|--8--8--8----8--8--8----8--8--8----8--7--6----6--6--6----6--6--6----6--6--6---|
|--6--6--6----6--6--6----6--6--6----6--5--4----4--4--4----4--4--4----4--4--4---|

the second time she says "go, go" (end of chorus)
|-----------|
|-----------|
|-----------|
|---3--4----|
|---3--4----|
|---1--2----|

Verse: back to clean part

Bridge:(distorted) Listen to the song for rhythm 
|----------------------------------------------------------------|
|----------------------------------------------------------------|
|-------------------------------------------4h6--3--4p3--4p3-----|
|---6--4------------4-4-4-4-4-4-4-4----4h6--------------------4--|
|---------6--4--2---4-4-4-4-4-4-4-4------------------------------|
|-------------------2-2-2-2-2-2-2-2------------------------------|

"Why do you gotta be... why do you make me..."
|-------------------------------------------------------------------------|
|-------------------------------------------------------------------------|
|--------------------------------------------------4h6--3--4p3--4p3-------|
|--6--6--6--6--6--6--6---5--4--4--4--4--4--4---4h6------------------4-----|
|--6--6--6--6--6--6--6---5--4--4--4--4--4--4------------------------------|
|--4--4--4--4--4--4--4---3--2--2--2--2--2--2------------------------------|


"Why do you gotta be..."                 "go, go"
|---------------------------------------------------|
|----------------------------9----------------------|
|----------------------------8--7--6----------------|
|--4--4--4--4--4--4--4--4----6--6--6-------3--4-----|
|--4--4--4--4--4--4--4--4----------6-------3--4-----|
|--2--2--2--2--2--2--2--2----------4-------1--2-----|


Last verse:back to clean part;
Ending chorus:same chorus part as above (distorted) repeated over and
over.


Tap to rate this tab
 
# A B C D E F G H I J K L M N O P Q R S T U V W X Y Z