Song name
# A B C D E F G H I J K L M N O P Q R S T U V W X Y Z

Poets Of The Fall - Illusion Dream tab

 -------------------------------------------------------------------------
		     Illusion & Dream - Poets of the Fall
--------------------------------------------------------------------------
Tabbed by: Simpaa
Email: simpa_dist@hotmail.com

Tuning: EADGBe

This is the intro part which is also played during the verse
  G#m        C#m/C#5           B           F#
e|-----------------------------------------------------------------------|
B|---0--4-0------4---5-4------------4------------------------------------|
G|-3---3-----------4------4------4-----4-----3---4p3---------------------|
D|------------6----------------4---4-------4---4-----4-------------------|
A|-----------------------------------------------------------------------|
E|-----------------------------------------------------------------------|

Bridge

C#m - C#m - B5 - A x2

C#m - C#m - G#m - G#m - F# - F# - F# - F#

Chorus

E - F# x4
Then these parts starts from the beggining

Interlude after second chorus

   G#m         C#m/C#5  B       F#
e|----------------------------------------2---------------------|
B|----------4-------4/5-------4---------2-----------------------|
G|--------4-------6---------4---------3-------------------------|
D|------6-------6---------4---------4---------------------------|
A|----6-------4---------2---------4-----------------------------|
E|--4---------------------------2-------------------------------|

Then Bridge and Chorus with a solo till end

Peace!

Tap to rate this tab
 
# A B C D E F G H I J K L M N O P Q R S T U V W X Y Z