Song name
# A B C D E F G H I J K L M N O P Q R S T U V W X Y Z

Poets Of The Fall - The Ultimate Fling tab

---------------------------------------------------------------------------
			     The Ultimate Fling - Poets of the Fall
---------------------------------------------------------------------------
Tabbed by:Simpaa
Email:simpa_dist

Tuning:EADGBe

e|-----------------------------------|
B|-----------------------------------|
G|---------------4-4-----------------|
D|---6-6-6-4-4-4-2-2-2-2-2-------4-4-|x2
A|---4-4-4-2-2-2-----0-0-0-6-6-6-2-2-|
E|-------------------------4-4-4-----|
Around here I started noticing that they end the intro very low, so maybe it is another 
but the tones are correct anyway.
|----------------------------------------------------------------------|
|----------------------------------------------------------------------|
|----------------------------------------------------------------------|
|----6-6-6-4-4-4-4-4-4-------------------------------------------------|
|----4-4-4-2-2-2-2-2-2-7-7-7-6-6-6-6-6-6-4-4-4-3-3-3-2-2-2-------------|
|----------------------5-5-5-4-4-4-4-4-4-2-2-2-1-1-1-0-0-0-------------|
Tap to rate this tab
# A B C D E F G H I J K L M N O P Q R S T U V W X Y Z