Song name
# A B C D E F G H I J K L M N O P Q R S T U V W X Y Z

Poets Of The Fall - Shallow tab

-------------------------------------------------------------------------------
			           Poets of the Fall - Shallow (intro)
-------------------------------------------------------------------------------
Tabbed by: Mr. Chapell
Email: mrchapell@hotmail.com

Tuning: Standars

e|0--------0------------------0----------------------------------------------|
B|0-0-----0--0-----0------1--1-----------------------------------------------|
G|5---5--5-----5--5-----0---0------------------------------------------------|
D|5-----5--------5----3------------------------------------------------------|
A|0--------------------------------------------------------------------------|
E|---------------------------------------------------------------------------|


| /  slide up
| \  slide down
| h  hammer-on
| p  pull-off
| ~  vibrato
| +  harmonic
| x  Mute note
===============================================================================
Tap to rate this tab
 
# A B C D E F G H I J K L M N O P Q R S T U V W X Y Z