Song name
# A B C D E F G H I J K L M N O P Q R S T U V W X Y Z

Poets Of The Fall - Desire tab

intro&verse:
           d9           G
--------0---------3---|
--------3---------3---|
--------2---------0---|
-----0--0---------0---|
-0p2----2---------2---|
------------(2)-3-3---|


pre-chorus


e|--0---0---0---0----0---0---0---0---0-------|
B|--3---3---1---3----3---3---1---3---0-------|
G|--0---0---0---0----0---0---0---0---1-------|
D|--2---0---2---0----2---0---2---0---2-------|
A|--3---2---0---2----3---2---0---2---2-------|
E|------(3)---------------(3)-----------0----|

Chorus:
--7--7--7---7--7--7---0--0--0--0----|
--8--8--7---8--8--7---1--3--1--3----|
--9--9--9---9--9--9---0--0--0--2----|  (x2)
--9--9--9---9--9--9---2--0--2--0----|
--7--7--9---7--7--9---0--2--3--0----|
--------7----------7----------------|

Interlude to verse & bridge:
-0----0--|
-3----3--|
-0----2--|
-2----0--|
-3----2--|
---------|

bridge
-0--0--0--0--0--0--0----|
-1--3--1--3--1--1--3----|
-0--0--0--0--0--0--2----|
-2--0--2--0--2--2--0----|
-3--2--3--2--3--3--2----|
------------------------|
-->Chorus
Tap to rate this tab
 
# A B C D E F G H I J K L M N O P Q R S T U V W X Y Z