Song name
# A B C D E F G H I J K L M N O P Q R S T U V W X Y Z

Poets Of The Fall - Dawn tab

Highlighted       Show chord diagrams
First off, I'd like to thank a friend of mine who figured out this all and who I give 
the credit too.

-----------------------------------------------------------------
POETS OF THE FALL - Dawn
-----------------------------------------------------------------
Tabbed by: Fabba
Email: andreoszwald@hotmail.com

Tuning: standard (EADGBe)

G6sus4addb11: 0
              0
              0
              2
              3
              3

     Em          G6sus4addb11 Em                             G6sus4addb11
         
When darkness is no less than everything you've built become undone

     Em          G6sus4addb11     Em                            G6sus4addb11
         
There's no fight and no flight, disaster leaves your passion overrun

     Em          G6sus4addb11   Em                       G6sus4addb11

It's time to let go, it's      time to carry on with the show

      Am            B               Em
don't mourn what is gone, greet the dawn

             Em               C
n' I will be standing by your side
               F#/D             Em
together we'll face the turning tide

Use the same chord progressions over and over again - for the people who want to play 
equivalent voice of the piano on the guitar, here are the chords you can let someone else 
on a second guitar if they like, or play this on your own:

    for Em   for G6sus4addb11   for Am   for B  for F#/D
              (OR C)
e|--0---0-------3---3-----------5---5----2---2----3---2--------------------|
B|--10--8-------3---5-----------5---5----2---4----3---3--------------------|
G|--9---9-------5---5-----------7---5----4---4----2---2--------------------|
D|--9---9-------5---5-----------7---7----4---4----0---0--------------------|
A|--9---9-------3---3-----------7---7----2---2-----------------------------|
E|------------------------------5---5--------------------------------------|
Tap to rate this tab
# A B C D E F G H I J K L M N O P Q R S T U V W X Y Z