Song name
# A B C D E F G H I J K L M N O P Q R S T U V W X Y Z

Poets Of The Fall - All The Way tab

-----------------------------------------------------------------
ALL THE WAY / 4U - Poets of the Fall
-----------------------------------------------------------------
Tabbed by: Fabba
Email: andreoszwald@hotmail.com

Tuning: Standard

INTRO & VERSE

     E  S S S E  S S S S S S S S S    E  S S S E  S S S S S S S S S  
E||-----------5--------------------|-----------5--------------------|
B||---------5----5-----------------|---------5----5-----------------|
G||-------7------------7-------7---|-------7------------7-------6---|
D||-----7------------7---7---7---7-|-----7------------7---7---7---7-|
A||--5-------------4-------0-------|------------------------0-------|
E||--------------------------------|--7-------------7---------------|


  E  S S S E  S S S S S S S S S    E  S S S E  S S S S S S S S S  
-----------5--------------------|-----------5--------------------|
---------5----5-----------------|---------5----5-----------------|
-------7------------7-------7---|-------7------------7-------6---|
-----7------------7---7---7---7-|-----7------------7---7---7---7-|
--5-------------4-------0-------|------------------------0-------|
--------------------------------|--7-------------7---------------|


  E  S S S E  S S S S S S S S S    E  S S S E  S S S S S S S S S  
-----------5--------------------|-----------5--------------------|
---------5----5-----------------|---------5----5-----------------|
-------7------------7-------7---|-------7------------7-------6---|
-----7------------7---7---7---7-|-----7------------7---7---7---7-|
--5-------------4-------0-------|------------------------0-------|
--------------------------------|--7-------------7---------------|


  E  S S S E  S S S S S S S S S    E  S S S E  S S S S S S S S S  
-----------5--------------------|-----------5--------------------|
---------5----5-----------------|---------5----5-----------------|
-------7------------7-------7---|-------7------------7-------6---|
-----7------------7---7---7---7-|-----7------------7---7---7---7-|
--5-------------4-------0-------|------------------------0-------|
--------------------------------|--7-------------7---------------|


  S S S S S S S S E  E  E  E     S S S S S S S S E  E  E  E   
----------------3-L-----------|----------------0-L-----------|
----------3----------3--------|----------3----------3--------|
------------------------------|------2-----2-----------2-----|
------5-----5-----------5-----|----4---4-----4------------4--|
----5---5-----5------------5--|--2---------------------------|
--3---------------------------|------------------------------|


  S S S S S S S S E  E  E  E     S S S S S S S S E  E  E  E   
----------------3-L-----------|----------------0-L-----------|
----------3----------3--------|----------3----------3--------|
------------------------------|------2-----2-----------2-----|
------5-----5-----------5-----|----4---4-----4------------4--|
----5---5-----5------------5--|--2---------------------------|
--3---------------------------|------------------------------|


  S S S S S S S S E  E  E  E     E  E  E  E  E  E  Q     
----------------3-L-----------|-------------------------|
----------3----------3--------|--------2-----3-----5----|
------------------------------|--------2-----4-----6----|
------5-----5-----------5-----|-----2-------------------|
----5---5-----5------------5--|--0--------0-----0-------|
--3---------------------------|-------------------------|


  E  S S S E  S S S S S S S S S    E  S S S E  S S S S S S S S S  
-----------5--------------------|-----------5--------------------|
---------5----5-----------------|---------5----5-----------------|
-------7------------7-------7---|-------7------------7-------6---|
-----7------------7---7---7---7-|-----7------------7---7---7---7-|
--5-------------4-------0-------|------------------------0-------|
--------------------------------|--7-------------7---------------|


  E  S S S E  S S S S S S S S S    E  S S S E  S S S S S S S S S  
-----------5--------------------|-----------5--------------------|
---------5----5-----------------|---------5----5-----------------|
-------7------------7-------7---|-------7------------7-------6---|
-----7------------7---7---7---7-|-----7------------7---7---7---7-|
--5-------------4-------0-------|------------------------0-------|
--------------------------------|--7-------------7---------------|


  S S S S S S S S E  E  E  E     S S S S S S S S E  E  E  E   
----------------3-L-----------|----------------0-L-----------|
----------3----------3--------|----------3----------3--------|
------------------------------|------2-----2-----------2-----|
------5-----5-----------5-----|----4---4-----4------------4--|
----5---5-----5------------5--|--2---------------------------|
--3---------------------------|------------------------------|


  S S S S S S S S E  E  E  E     S S S S S S S S E  E  E  E   
----------------3-L-----------|----------------0-L-----------|
----------3----------3--------|----------3----------3--------|
------------------------------|------2-----2-----------2-----|
------5-----5-----------5-----|----4---4-----4------------4--|
----5---5-----5------------5--|--2---------------------------|
--3---------------------------|------------------------------|


  S S S S S S S S E  E  E  E     E  E  E  E  E  E  Q     
----------------3-L-----------|-------------------------|
----------3----------3--------|--------2-----3-----5----|
------------------------------|--------2-----4-----6----|
------5-----5-----------5-----|-----2-------------------|
----5---5-----5------------5--|--0--------0-----0-------|
--3---------------------------|-------------------------|


CHORUS

  S S S S S S S S S S S S S S S S    S S S S S S S S S S S S S  S E   
------5-------5-------3-------2---|------0-------0-------0-----------|
----5---5---5---5---3---3---3---3-|----3---3---3---3---3----------3--|
--7-------6-------4-------2-------|--0-----------------------2h-4----|
--0-------------------------------|----------4-------2---------------|
----------------------------------|----------------------------------|
----------------------------------|----------------------------------|


  S S S S S S S S S S S S S S S S    S S S S S S S S Q    Q     
------5-------5-------3-------2---|----------0-----2-L---------|
----5---5---5---5---3---3---3---3-|------3-----3----------3----|
--7-------6-------4-------2-------|----0---0-----0-------------|
--0-------------------------------|--2-------------------------|
----------------------------------|----------------------------|
----------------------------------|----------------------------|


  W                  
--0----------------||
--3----------------||
--0----------------||
--2----------------||
-------------------||
-------------------||

When the distorted guitar comes in, all you play are two chords: 

------------------||
------------------||
------------------||
--5---9-----------||
--5---9-----------||
--3---7-----------||


... over and over again ;-)

Duration Legend
---------------
W - whole
H - half
Q - quarter
E - 8th
S - 16th
T - 32nd
X - 64th
. - note dotted
|-n-|  - n-tuplets
Tap to rate this tab
# A B C D E F G H I J K L M N O P Q R S T U V W X Y Z