Song name
# A B C D E F G H I J K L M N O P Q R S T U V W X Y Z

Poets Of The Fall - More tab

----------------------------------------------------------------------------
			     MORE - POETS OF THE FALL
----------------------------------------------------------------------------
Tabbed by: Kiran S
Email: kgs1992@gmail.com

Tuning: Standard

Well, this is very, very easy song (intro) to play.....
I'm a six month old guitarist and this is my first tab, so please bare with
my mistakes.....
I'm 90% sure this tab is perfectly correct....

In the first two bars, play each note with an up-down stroke....

e|-0-0-0-0-2-2-2-2-3-3-3-3-5-5-5-5-|
B|-0-0-0-0-0-0-0-0-0-0-0-0-0-0-0-0-|
G|---------------------------------| REMEMBER: Up-down stroke!
D|---------------------------------|
A|---------------------------------|
E|---------------------------------|

At this point, the second guitar plays chords with drums, hence, there is a
difference in the sound...

e|-0-0-0-0-2-2-2-2-3-3-3-3-5-5-5-5-|
B|-0-0-0-0-0-0-0-0-0-0-0-0-0-0-0-0-|
G|---------------------------------| x3 REMEMBER: Up-down stroke!
D|---------------------------------|
A|---------------------------------|
E|---------------------------------|

In the bar below, let the sound of the first note ring....

e|-0-------------------------------|
B|-0-------------------------------|
G|---------------------------------| REMEMBER: NO Up-down stroke!
D|-------------------------2-2-2---|
A|---------------------------------|
E|---------------------------------|


No muting is required anywhere....
Listening to the song will help....
This sounds good with distortion, but don't keep your gain above
half(differs from amp to amp), so that it doesn't sound too noisy....
Please do rate, so I know how good or bad this tab is....
Thanks!
============================================================================
Tap to rate this tab
# A B C D E F G H I J K L M N O P Q R S T U V W X Y Z