Song name
# A B C D E F G H I J K L M N O P Q R S T U V W X Y Z

Poets Of The Fall - King Of Fools tab

-----------------------------------------------------------------------------
		                      King of Fools - Poets of the Fall
-----------------------------------------------------------------------------
Tabbed by: Narrak
Email: narrak12@gmail.com

Tuning: Standard

I think the intro and chorus goes something like this.

e|--5--5--5-------------------------------------|
B|-----------8--8--8--8--8--5--5----------------|
G|--------------------------------7-------------|
D|----------------------------------------------|
A|----------------------------------------------|
E|----------------------------------------------|



Verse part

e|---------------------------------------------|
B|--------------0--------------------0---------|
G|--------5--------5-----------5--------5------|
D|-----5-----5--------5-----5-----5--------5---|
A|--0------------------------------------------|
E|-----------------------3---------------------|


e|----------------------------------------------|
B|--------------1--------------------0----------|
G|--------0---------0----------5--------5-------|
D|-----3-----3----------3---5-----5--------5----|
A|----------------------------------------------|
E|--1-------------------------------------------|
Tap to rate this tab
# A B C D E F G H I J K L M N O P Q R S T U V W X Y Z