Song name
# A B C D E F G H I J K L M N O P Q R S T U V W X Y Z

Poets Of The Fall - The Ultimate Fling tab

This is a fiddle around with Simpaa's tab for this song,
I just altered it so that it plays in drop D, this should 
be exact to the song.

This is with the lower key, it is in drop D so that it can 
reach them. This is the version off the Music Video.

Tuning:DADGBe

E|-----------------------------------|
B|-----------------------------------|
G|---------------4-4-----------------|
D|---6-6-6-4-4-4-2-2-2-2-2-------4-4-|x2
A|---4-4-4-2-2-2-----0-0-0-6-6-6-2-2-|
D|-------------------------6-6-6-----|

|----------------------------------------------------------------------|
|----------------------------------------------------------------------|
|----------------------------------------------------------------------|
|----6-6-6-4-4-4-4-4-4-------------4-4-4-------------------------------|
|----4-4-4-2-2-2-2-2-2-7-7-7-6-6-6-2-2-2-4-4-4-2-2-2-2-1-1-1-0---------|
|----------------------7-7-7-6-6-6-------4-4-4-2-2-2-2-1-1-1-0---------|

However, the song I own on my itunes goes:

Tuning:DADGBe

e|-----------------------------------|
B|-----------------------------------|
G|---------------4-4-----------------|
D|---6-6-6-4-4-4-2-2-2-2-2-------4-4-|x2
A|---4-4-4-2-2-2-----0-0-0-6-6-6-2-2-|
D|-------------------------6-6-6-----|

|------------------------------------|
|------------------------------------|
|------------------------------------|
|------------------------------------|
|---4-4-4-2-2-2-2-1-1-0--------------|
|---4-4-4-2-2-2-2-1-1-0--------------|

It is just shorter than the original, that is all.
Tap to rate this tab
 
# A B C D E F G H I J K L M N O P Q R S T U V W X Y Z