Poets Of The Fall - Given And Denied tab

e--------------------------------------11-12-11---------------------|
B-----9v-------12v--------14v-14v-14v-----------14-12---------------|
G-6s8-----9s11------11s13-----------------------------11s9v---------|
D-------------------------------------------------------------------|
A-------------------------------------------------------------------|
E-------------------------------------------------------------------|

e-------------------------------------------------------------------|
B-----12v--12v--12v--12v--12v---------------------------14-------16-|
G-8s9-11v--11v--11v--11v--11v---------------------------------------|
D------------------------------11-9----9-11-*11---------------------|
A-----------------------------------11------------12s13----14s16----|
E-------------------------------------------------------------------|

                                       (21)=(pick while Holding bend)

e---------------------------------19v--19v--19v--19v-16-19b21-(21)--|
B----------17----------19---16-17-----------------------------------|
G-------------------------------------------------------------------|
D-------------------------------------------------------------------|
A-16-16s18----18-18s19----------------------------------------------|
E-------------------------------------------------------------------|

e-19b21-19v--18--14s16----------------------------------------------|
B-----------------------16s14--12-11--------------------------------|
G-------------------------------------11s13-------------------------|
D-------------------------------------------------------------------|
A-------------------------------------------------------------------|
E-------------------------------------------------------------------|
Tap to rate this tab
 
# A B C D E F G H I J K L M N O P Q R S T U V W X Y Z