Song name
# A B C D E F G H I J K L M N O P Q R S T U V W X Y Z

Poets Of The Fall - Fragile tab

This tab is about 90% right.It sounds perfect,but original version is another way to play.
Poets Of The Fall  Fragile
Intro
e|--------7----7---------7----7----|                 Chords Used:
B|---------------------------------|                 Asus2 x02200
G|-----9-----9---9----9-----9---9--|                 Bsus4 x24400
D|----9-9---9--------9-9---9-------|                 C#m   x46600
A|-----------------7---------------|                 B*    xx4450
E|---------------------------------|                 B**   xx4402
Verse 1                                              E     x79900
e|--------7----7---------7----7--------7----7----|   Dsus2 xx0230
B|-----------------------------------------------|   F#    244300
G|-----9-----9---9----9-----9---9----9----9---9--|
D|----9-9---9--------9-9---9--------9-9--9-------|
A|--7---------------7-------------7--------------|
E|-----------------------------------------------|
      You've been biting bullets all these years I know
     They're beside yourself choking on

e|--------7----7---------7----7-----|
B|----------------------------------|
G|-----9-----9---9----9-----9---9---|
D|----9-9---9--------9-9---9--------|
A|----------------------------------|
E|--9--------------9----------------|
      tears       And you aced avoiding possibili-

e|--------7----7---------7----7--------7----7-------7----7-------|
B|-------------------------------------------------------x-------|
G|-----9-----9---9----9-----9---9----9----9---9---9------9-------|
D|----9-9---9--------9-9---9--------9-9--9-------9-9--9--9-------|
A|----------------------------------------------0----------------|
E|--7--------------7---------------------------------------------|
    ty            When you placed your bets on bittersweet
Pre-Chorus
e|--------5----5----------7---7--------------7----7----|
B|-----------------------------------------------------|
G|-----7-----7---7-----9-----9--9----------9-----9--9--|
D|----7-7---7---------9-9---9-------------9-9---9------|
A|--5----------------7---------------------------------|
E|---------------------------------------9-------------|     Bsus4 Asus2
Now don't you worry No need to be sorry Time to step lightly

Chorus
      Asus2                                      B* B** B*
'Cuz the love you used to feel is still there inside
      C#m
It may be a faded photograph but I know you care
So don't hide
          Asus2
If you're scared I'm here beside you
           B*                B**    B*
If you get lost I'm here to guide you
         C#m
And I'll give you peace when peace is fragile
Dsus2
Love is all the good in you
Asus2              Bsus4        E
Love is peace when peace is fragile

Verse 2 (The same way)
You've been going out of way to agree
Like you've been rubbing yourself all wrong
Just to be somebody else's genie
Catering to your disasters every need
Waiting to finally be set free

Pre-Chorus
I said baby don't worry
Life will carry
Just take it slowly

Chorus

Bridge(play 2 times)
E  Asus2
Hey eh ehhh
C#m Bsus4
Hoh oh ohhh
E Asus2
Hey eh eh
F#
Hey hey hey

Chorus

Outro
e|--------7----7---------7----7--------7----7-----|
B|------------------------------------------------|
G|-----9-----9---9----9-----9---9----9----9---9---|   Go on playing,fading..
D|----9-9---9--------9-9---9--------9-9--9--------|
A|--7---------------7-------------7---------------|
E|------------------------------------------------|
Tap to rate this tab
 
# A B C D E F G H I J K L M N O P Q R S T U V W X Y Z