Song name
# A B C D E F G H I J K L M N O P Q R S T U V W X Y Z

Poets Of The Fall - Seek You Out tab

P.S. not whole song
h=hammer
p=pull off
f=flute sound

Intro:
e|----------2--2-3--3p0------------------2-5--|
B|------3---3--3-3------2---2--------3---3-3--|
G|----0---0---------------0--------0---0---0--|
D|0h2--------------------------0h2---------2--|
A|--------------------------------------------|
E|--------------------------------------------|

Chorus: Em,D,Am,C

Bridge:
2x
e|-----------12f--------------15-14-----------|
B|--------------12f-----------------15--------|
G|------7-----------------7-------------------|
D|--4-5---------------4-5---------------------|
A|5-----------------5-------------------------|
E|--------------------------------------------|
Tap to rate this tab
# A B C D E F G H I J K L M N O P Q R S T U V W X Y Z