Song name
# A B C D E F G H I J K L M N O P Q R S T U V W X Y Z

Poets Of The Fall - Delicious tab

Help us improve GuitareTab! Take a short survey!
-----------------------------------------------------------------
DELICIOUS - Poets of the Fall
-----------------------------------------------------------------
Tabbed by: Fabba
Email: andreoszwald@hotmail.com

Tuning: Drop-D

Intro Riff:

e|---------------------------------------------------------------|
B|---------------------------------------------------------------|
G|---------------------------------------------------------------|
D|-------4------------9p7---------4-------0----------------------|
A|-----4----4-------7-----------2----2----0----------------------|
D|--4----------4/7--------7--2----------2-0----------------------|

Alternated Riff (when the drums set in after the intro, and after the chorus)

e|---------------------------------------------------------------|
B|---------------------------------------------------------------|
G|---------------------------------------------------------------|
D|-------4------------9p7---------4------------4----4/6--4-------|
A|-----4----4-------7-----------2----2-------0----0------4-------|
D|--4----------4/7--------7--2----------2-0--------------4-------|

Chorus:

(I'll only tab the chords once)

   Ficticious and so real, love's a one-time deal,
e|---------------------------------------------------------------|
B|---------------------------------------------------------------|
G|--------------------------6----------------7---------------------|
D|-4------------2-----------6----------------7-----------------------|
A|-4------------2-----------4----------------5----------------------|
D|-4------------2--------------------------------------------------|


   with a delicious-dark appeal, and a religious kind of zeal
e|---------------------------------------------------------------|
B|---------------------------------------------------------------|
G|-------------------------4--------------7--------------9-------|
D|---------4---------------4--------------7--------------9-------|
A|---------4---------------2--------------5--------------7-------|
E|---------4-----------------------------------------------------|

   So precious yet so real, life's a one-time deal,
e|---------------------------------------------------------------|
B|---------------------------------------------------------------|
G|--------------------------6----------------7-------------------|
D|-4------------2-----------6----------------7-------------------|
A|-4------------2-----------4----------------5-------------------|
D|-4------------2------------------------------------------------|


   with a delicious-dark appeal, and a religious kind of zeal
e|---------------------------------------------------------------|
B|---------------------------------------------------------------|
G|-------------------------4--------------7--------------9-------|
D|---------4---------------4--------------7--------------9-------|
A|---------4---------------2--------------5--------------7-------|
D|---------4-----------------------------------------------------|

At the bridge, play the alternated riff. After the last chorus, play this:

e|---------------------------------------------------------------|
B|---------------------------------------------------------------|
G|---------------------------------------------------------------|
D|-------11-------------9p7-----------4p2----------4-2-4/6-------|
A|-----9-----9-------7-------7------2------2----0----------------|
D|--9-----------9/7-------------\2-----------0-------------------|

then play the "alternated riff" until the end of the song.

Related for Delicious tab