Guitaretab - guitar tabs
Song name
# A B C D E F G H I J K L M N O P Q R S T U V W X Y Z
Home / P / Pogomarto / Crs tab

Pogomarto - Crs tab

voila la tab encore dediť a http://acide.discutforum.com/


CRS SS_POGOMARTO

e]---------------------------------------|
B]---------------------------------------|
G]---------------------------11xxxxxxx---|
D]--7xxxxxxx10xxxxxxx7xxxxxxx11xxxxxxx---|
A]--7xxxxxxx10xxxxxxx7xxxxxxx9 xxxxxxx---|
E]--5xxxxxxx8 xxxxxxx5xxxxxxx  ----------|

e]---------------------------------------|
B]---------------------------------------|
G]---------------------------11-10-9-8---|
D]--7xxxxxxx10xxxxxxx7xxxxxxx11-10-9-8---|
A]--7xxxxxxx10xxxxxxx7xxxxxxx9 -8 -7-6---|
E]--5xxxxxxx8 xxxxxxx5xxxxxxx  ----------|

e]---------------------------------------|
B]---------------------------------------|
G]---------------------------11xxxxxxx---|
D]--7xxxxxxx10xxxxxxx7xxxxxxx11xxxxxxx---|
A]--7xxxxxxx10xxxxxxx7xxxxxxx9 xxxxxxx---|
E]--5xxxxxxx8 xxxxxxx5xxxxxxx  ----------|

e]---------------------------------------|
B]---------------------------------------|
G]---------------------------11-10-9-8---|
D]--7xxxxxxx10xxxxxxx7xxxxxxx11-10-9-8---|
A]--7xxxxxxx10xxxxxxx7xxxxxxx9 -8 -7-6---|
E]--5xxxxxxx8 xxxxxxx5xxxxxxx  ----------|

e]-----------------------------------------------------|
B]-----------------------------------------------------|
G]----------------------------------1111111111111111---|
D]--777777771010101010101010777777771111111111111111---|
A]--777777771010101010101010777777779 9 9 9 9 9 9 9 ---|
E]--555555558 8 8 8 8 8 8 8 55555555  -----------------|

e]----------------------------------------------|
B]----------------------------------------------|
G]----------------------------------11-10-9-8---|
D]--7777777710101010101010107777777711-10-9-8---|
A]--777777771010101010101010777777779 -8 -7-6---|
E]--555555558 8 8 8 8 8 8 8 55555555  ----------|

e]--------------------------------------------------------------------|
B]--------------------------------------------------------------------|
G]--5555444455554444555544445555444455554444555544445555444455554444--|
D]--5555444455554444555544445555444455554444555544445555444455554444--|
A]--3333222233332222333322223333222233332222333322223333222233332222--|

E]--------------------------------------------------------------------|
e]-----------------------------------------------------|
B]-----------------------------------------------------|
G]----------------------------------1111111111111111---|
D]--777777771010101010101010777777771111111111111111---|
A]--777777771010101010101010777777779 9 9 9 9 9 9 9 ---|
E]--555555558 8 8 8 8 8 8 8 55555555  -----------------|

e]----------------------------------------------|
B]----------------------------------------------|
G]----------------------------------11-10-9-8---|
D]--7777777710101010101010107777777711-10-9-8---|
A]--777777771010101010101010777777779 -8 -7-6---|
E]--555555558 8 8 8 8 8 8 8 55555555  ----------|

e]--------------------------------------------------------------------|
B]--------------------------------------------------------------------|
G]--5555444455554444555544445555444455554444555544445555444455554444--|
D]--5555444455554444555544445555444455554444555544445555444455554444--|
A]--3333222233332222333322223333222233332222333322223333222233332222--|
E]--------------------------------------------------------------------|
[ Tab from: http://www.guitaretab.com/p/pogomarto/102613.html ]
e]-----------------------------------------------------|
B]-----------------------------------------------------|
G]----------------------------------1111111111111111---|
D]--777777771010101010101010777777771111111111111111---|
A]--777777771010101010101010777777779 9 9 9 9 9 9 9 ---|
E]--555555558 8 8 8 8 8 8 8 55555555  -----------------|

e]----------------------------------------------|
B]----------------------------------------------|
G]----------------------------------11-10-9-8---|
D]--7777777710101010101010107777777711-10-9-8---|
A]--777777771010101010101010777777779 -8 -7-6---|
E]--555555558 8 8 8 8 8 8 8 55555555  ----------|

e]--------------------------------------------------------------------|
B]--------------------------------------------------------------------|
G]--5555444455554444555544445555444455554444555544445555444455554444--|
D]--5555444455554444555544445555444455554444555544445555444455554444--|
A]--3333222233332222333322223333222233332222333322223333222233332222--|
E]--------------------------------------------------------------------|


e]-----------------------------------------------------|
B]-----------------------------------------------------|
G]----------------------------------1111111111111111---|
D]--777777771010101010101010777777771111111111111111---|
A]--777777771010101010101010777777779 9 9 9 9 9 9 9 ---|
E]--555555558 8 8 8 8 8 8 8 55555555  -----------------|

e]----------------------------------------------|
B]----------------------------------------------|
G]----------------------------------11-10-9-8---|
D]--7777777710101010101010107777777711-10-9-8---|
A]--777777771010101010101010777777779 -8 -7-6---|
E]--555555558 8 8 8 8 8 8 8 55555555  ----------|


e]-----------------------------------------------------|
B]-----------------------------------------------------|
G]----------------------------------1111111111111111---|
D]--777777771010101010101010777777771111111111111111---|
A]--777777771010101010101010777777779 9 9 9 9 9 9 9 ---|
E]--555555558 8 8 8 8 8 8 8 55555555  -----------------|

e]----------------------------------------------|
B]----------------------------------------------|
G]----------------------------------11-10-9-8---|
D]--7777777710101010101010107777777711-10-9-8---|
A]--777777771010101010101010777777779 -8 -7-6---|
E]--555555558 8 8 8 8 8 8 8 55555555  ----------|

e]--------------------------------------------------------------------|
B]--------------------------------------------------------------------|
G]--5555444455554444555544445555444455554444555544445555444455554444--|
D]--5555444455554444555544445555444455554444555544445555444455554444--|
A]--3333222233332222333322223333222233332222333322223333222233332222--|
E]--------------------------------------------------------------------|

e]-----------------------------------------------------|
B]-----------------------------------------------------|
G]----------------------------------1111111111111111---|
D]--777777771010101010101010777777771111111111111111---|
A]--777777771010101010101010777777779 9 9 9 9 9 9 9 ---|
E]--555555558 8 8 8 8 8 8 8 55555555  -----------------|

e]----------------------------------------------|
B]----------------------------------------------|
G]----------------------------------11-10-9-8---|
D]--7777777710101010101010107777777711-10-9-8---|
A]--777777771010101010101010777777779 -8 -7-6---|
E]--555555558 8 8 8 8 8 8 8 55555555  ----------|

e]--------------------------------------------------------------------|
B]--------------------------------------------------------------------|
G]--5555444455554444555544445555444455554444555544445555444455554444--|
D]--5555444455554444555544445555444455554444555544445555444455554444--|
A]--3333222233332222333322223333222233332222333322223333222233332222--|
E]--------------------------------------------------------------------|