Guitaretab - guitar tabs
Song name
# A B C D E F G H I J K L M N O P Q R S T U V W X Y Z

Pogues - Fairytale Of New York tab

-------------------------------------------------------------------------------
                 Fairytale Of New York - The Pogues                        
Tabbed by: Kyle M

Tuning: Standard (EADGBE)

Intro

e|--------------------------------------------------------------------------||
B|---0---2-3--------------------------------------------------------------  |
G|-2---0-----2---0---------------------------------------------------------- |
D|-------------0---4-2-0-0---------------------------------------------------|
A|---------------------------------------------------------------------------|
E|---------------------------------------------------------------------------|
  
e|---------------------------------------------------------------------------|
B|---------------------------------------------------------------------------|
G|---------------------------------------------------------------------------|
D|---0---2-0-0-----12-12-11-11-9-9-----9-11-12-7-4-4-----0-5-4-4-2-2---------|
A|-0---4---------------------------------------------------------------------|
E|---------------------------------------------------------------------------|
    
e|---------------------------------------------------------------------------|
B|---------------------------------------------------------------------------|
G|---------------------------------------------------------------------------|
D|---0---2-0-0-----12-12-11-11-9-9-----9-11-12-7-4-4-----0-5-4-2-0-0---------|
A|-0---4---------------------------------------------------------------------|
E|---------------------------------------------------------------------------|
e|---------------------------------------------------------------------------|
B|---------------------------------------------------------------------------|
G|---------------------------------------------------------------------------|
D|---0---2-0-0-----12-12-11-11-9-9-----9-11-12-7-4-4-----0-5-4-4-2-2---------|
A|-0---4---------------------------------------------------------------------|
E|---------------------------------------------------------------------------|
    
e|---------------------------------------------------------------------------|
B|---------------------------------------------------------------------------|
G|---------------------------------------------------------------------------|
D|---0---2-0-0-----12-12-11-11-9-9-----9-11-12-7-4-4-----0-5-4-2-0-0---------|
A|-0---4---------------------------------------------------------------------|
E|---------------------------------------------------------------------------|

e|----------0----------------------------------------------------------------|
B|---0---2----2---0----------------------------------------------------------|
G|-2---0--------0---4-2-0----------------------------------------------------|
D|---------------------------------------------------------------------------|
A|---------------------------------------------------------------------------|
E|---------------------------------------------------------------------------|
  
 Bridge 

e|---------------------------------------------------------------------------|
B|---0-----------0-----------------------------------------------------------|
G|-2---2-------2---2---------------------------------------------------------|
D|-------4-0---------2-0-2-4-2-0-------------0-------------------------------|
A|-------------------------------2-0-2-0-2-4---------------------------------|
E|---------------------------------------------------------------------------|
     
 Verse

e|---0-2-0---0-2-0---------5-7-5-2---0-2-3-5-0-----5-7-5-2-----0-2-0---------|
B|-3-------3-------3-0-------------3-----------------------3-3-------3-0-----|
G|---------------------------------------------------------------------------|
D|---------------------------------------------------------------------------|
A|---------------------------------------------------------------------------|
E|---------------------------------------------------------------------------|

e|-----2-5-2---0-2-0---------------------------------------------------------|
B|---3-------3-------3-------------------------------------------------------|
G|-2-------------------------------------------------------------------------|
D|---------------------------------------------------------------------------|
A|---------------------------------------------------------------------------|
E|---------------------------------------------------------------------------|
[ Tab from: http://www.guitaretab.com/p/pogues/14863.html ]
e|-5-7-5-2-----5-7-5-0-----0-2-0---------------------------------------------|
B|----------------------3--------3-0---------2-3-----------------------------|
G|-----------------------------------2-4-2-4---------------------------------|
D|---------------------------------------------------------------------------|
A|---------------------------------------------------------------------------|
E|---------------------------------------------------------------------------|

e|-5-7-5-2-----5-7-5-0-----0-2-0---------------------------------------------|
B|----------------------3--------3-0---------2-3-----------------------------|
G|-----------------------------------2-4-2-4---------------------------------|
D|---------------------------------------------------------------------------|
A|---------------------------------------------------------------------------|
E|---------------------------------------------------------------------------|

 Chorus

e|-5-7-7-7-7-9-10-10-9-7-5---------------------------------------------------|
B|--------------------------10-9-7---3-8-5-7---------------------------------|
G|---------------------------------------------------------------------------|
D|---------------------------------------------------------------------------|
A|---------------------------------------------------------------------------|
E|---------------------------------------------------------------------------|

REPEAT VERSE AND CHORUS
  
Outro

e|---------------------------------------------------------------------------|
B|-3-3-2-2-0-0-----0-2-3-----------------------------------------------------|
G|-----------------------2--------0------------------------------------------|
D|-------------------------4-4--0---4-2-0------------------------------------|
A|----------------------------------------4----------------------------------|
E|---------------------------------------------------------------------------|
   
(starting on "You Took My Dreams From Me...)
e|---------------------------------------------------------------------------|
B|---------------------------------------------------------------------------|
G|---------------------------------------------------------------------------|
D|-9-11-12-7-4-4--0-5-4-4-2-2-------0---2-0-0-----12-12-11-11-9-9---9-11-----|
A---------------------------------0---4--------------------------------------|
E|---------------------------------------------------------------------------|

e|---0---2-0-0-----12-12-11-11-9-9---9-11-12-7-4-4--0-4-0-5-4-2-0------------|
B|-0---4---------------------------------------------------------------------|
G|---------------------------------------------------------------------------|
D|---------------------------------------------------------------------------|
A|---------------------------------------------------------------------------|
E|---------------------------------------------------------------------------|

  Chorus

e|-5-7-7-7-7-9-10-10-9-7-5----------/15--------------------------------------|
B|-------------------------10-9-7--------------------------------------------|
G|---------------------------------------------------------------------------|
D|---------------------------------------------------------------------------|
A|---------------------------------------------------------------------------|
E|---------------------------------------------------------------------------|
  Outro Instrumental
e|---------------------------------------------------------------------------|
B|-2-5-3-3--3-3-2-2-0-0---0-2-3----------------------------------------------|
G|------------------------------2---------0----------------------------------|
D|--------------------------------4-4---0---4-4-2-2--------------------------|
A|---------------------------------------------------------------------------|
E|---------------------------------------------------------------------------|

e|---------------------------------------------------------------------------|
B|-2-3-2-5-3-3---3-3-2-2-0-0---0-2-3-----------------------------------------|
G|-----------------------------------2---------0-----------------------------|
D|-------------------------------------4-4---0---4-2-0-----------------------|
A|-----------------------------------------------------4---------------------|
E|---------------------------------------------------------------------------|

REPEAT OUTRO INSTRUMENTAL AND FADE OUT


| /  slide up
| \  slide down
| h  hammer-on
| p  pull-off
| ~  vibrato
| +  harmonic
| x  Mute note
===============================================================================
Related for Fairytale Of New York tab
×
Best way to learn
"Fairytale Of New York"