Song name
# A B C D E F G H I J K L M N O P Q R S T U V W X Y Z

Pohlmann - Zurck Zu Dir tab

Tabbed by:Marek Leske
Email:marekez@hotmail.de

Tuning:

1st Guitar (Strumming Guitar)
Eb Ab Db Gb Bb Eb (Standard 1/2 Step Down)

2nd Guitar (Picking Guitar)
E A D G B E (Standard)

INTRO

Em7 D/F# Em7 D/F#

e  ---------------------------4-----------------------2------|
B  ---------------------2-----------------------2------------|
G  --------------------1-1-----------------------------------|
D  -3---3------------3-----3-------------------1--1----------|
A  ---4---1---4----------------------------1h2------2--------|
E  ---------4----------------------4-6-7---------------------|

e  ------------------1---------------------------------------|
B  ------------2--------2---4--2-----------------------------|
G  -------6------1--------1-----1----------------------------|
D  -----4----------3-----------------------------------------|
A  -4h6-----4------------------------------------------------|
E  ----------------------------------------------------------|


VERSE

Em7 D/F# Cadd9 D/F#

Em7 D/F# Cadd9 Em7 D/F# Cadd9


CHORUS

Em7 Cadd9 G D/F# 4x

Em7 D/F# Cadd9 2x

e  ----------------------------------------------------------|
B  -----2-----2---------- ---------------2-----2-------------|
G  ---1-----1--------------------------1-----1---------------|
D  -0-----3--------------------------0-----3-----------------|
A  ----------------(4h5-4)-----------------------------------|
E  ----------------------------------------------------------|


BRIDGE

Em7 Cadd9 G D/F# 3x

CHORUS

Em7 Cadd9 G D/F# 5x

Em7 D/F# Cadd9 2x
Tap to rate this tab
 
# A B C D E F G H I J K L M N O P Q R S T U V W X Y Z