Song name
# A B C D E F G H I J K L M N O P Q R S T U V W X Y Z

Pohlmann - Das Gluck tab

Pohlmann - Das Glck - capo. 2
by Borner

Intro/Strophe 1:
E----------------------------------3---------|
H-----3-3------0-0------0-0------3-3---------|
G-----0-0------0-0------0-0------0-0---------|
D--------------------------------------------|
A----------------------2--------3------------|
E---3--------2-------------------------------|

Lass dich ansehen
Und schau zurck
Was auch immer dich bedrckt
Du bist Schpfung I'm Jetzt und Hier
Und du bist blind ver-
E----------------------------------2---------|
H-----3-3------0-0------0-0-------3----------|
G-----0-0------0-0------0-0------2-----------|
D-------------------------------0------------|
A----------------------2---------------------|
E---3--------2-------------------------------|
    trau  -  e         dir

Refrain:
    C       G       e        D
E---3-------3-------0--------2----------------|
H---3-------3-------0--------3----------------|
G---0-------0-------0--------2----------------|
D---2-------0-------2--------0----------------|
A---3-------2-------2-------------------------|
E-----------3-------0-------------------------|

                        C   G   e
Und das Glck ist immer nur
         C          D
Ein paar Trnen entfernt
                    C   G   e   
Das Glck ist immer nur
         C         D
Ein paar Trnen entfernt
                            C   G   e 
Du bist ihnen schon auf der Spur
         C              D
Wenn die Letzte von dir fllt
                    C   G   e            C    D
Das Glck ist immer nur         ein paar Trnen 

von dir entfernt (siehe Strophe)


Strophe 2:

E---------------------| Hierbei die ersten drei Seiten der Gitarre anschlagen 
H---------------------| 
G---------------------|
D----0------0-----2---|
A----2------0-----2---|
E----3------2-----0---|


Und fr den schnsten Regenbogen braucht man immer etwas Regen
Vor der Angst um den Tod steht die Freude am Leben
Und wer geneigt dazu war sich den Gar auszumachen
Der wird am Strand sich noch finden und ins 
C                    D
Weltall lachen ins Weltall lachen



Refrain:

                        C   G   e
Und das Glck ist immer nur
         C          D
Ein paar Trnen entfernt
                    C   G   e   
Das Glck ist immer nur
         C         D
Ein paar Trnen entfernt
                            C   G   e 
Du bist ihnen schon auf der Spur
         C              D
Wenn die Letzte von dir fllt
                    C   G   e            C    D
Das Glck ist immer nur         ein paar Trnen 
         C    D
ein paar Trnen von dir entfernt (siehe Strophe)
Tap to rate this tab
# A B C D E F G H I J K L M N O P Q R S T U V W X Y Z