Song name
# A B C D E F G H I J K L M N O P Q R S T U V W X Y Z

Pohlmann - Koenig Der Strassen chords

Highlighted       Show chord diagrams
Tuning: EADGBe

D/F#:  2x0232
Adim:  xx1212

Intro/Zwischenspiel

e|--------3------2--|-------2p0------|----------------|---------------|
B|------3---3-------|-----------3-0--|-----0-------1--|------1p0------|
G|----0-------0-----|----2-----------|----(0)--2-0----|----------2-0--|
D|------------------|--0-------------|--2-(2)---------|----2----------|
A|------------------|----------------|----------------|--3------------|
E|--3---------------|----------------|----------------|---------------|

p = pull-off

G D Em C D


Strophe:
G                      D      Em                C    D
  Ich fühl mich völlig leer,     abgestellt und mitgenommen.
G                      D      Em                           C          D
  Ich sitz im falschen Zug -     müsste langst raus, Hab's nicht mitbekommen.
G                     D/F#   Adim                        Em       C
  Ich flieg' über die Stadt      mit all den ander'n Pechvögeln zusammen.
G                     D/F#       Adim     Em         D         C
  Und sie hängen mich ab -   Is' ok der   Letzte der Letzen zu sein,
    Em         D
Der Letzte der Letzten.

Refrain:
G                       D                           Em
  Ich bin der König der Straßen und lieg auf deinem Weg -
        C       D
Erwarte keine Geschenke.
G                     D                            Am7
  Und all die Häuserfassaden jedes Geschäfts und Cafés
     C       D
Sind meine 4 Wände.


Zwischenspiel: 2x


Strophe:
G                       D      Em                           C         D
  Ich fühl' mich völlig frei -   bekomm' einen Sinn für die kleinen Details.
G                         D     Em                          C      D
  Ich schau nicht mehr vorbei -   ich leb' ab ab jetzt nach meiner Zeit.
G                D/F#     Adim                            Em          C
  In meinem Mikrokosmos -    ich seh' mich lächeln in den Pfützen der Stadt
G                         D/F#         Adim      Em         D          C
  Ich muss nichts mehr riskier'n - Is's ok   der Letzte der Letzten zu sein,
    Em         D     
Der Letzte der Letzten.

Refrain
Zwischenspiel: 2x 

G  D  Em  C

G        D         Em         C 
  Keiner über mir -   Niemand unter mir.
G         D                    Em     C 
  Und ich flieg mit den Fetzen -    Applaus -
C
für den Letzten der Letzten.

Refrain

Outro:
e|--------3------2--|-------2p0------|----------------|
B|------3---3-------|-----------3-0--|-----0-------1--|
G|----0-------0-----|----2-----------|----(0)--2-0-0--|
D|------------------|--0-------------|--2-(2)------2--|
A|------------------|----------------|-------------3--|
E|--3---------------|----------------|----------------|
Tap to rate this tab
 
# A B C D E F G H I J K L M N O P Q R S T U V W X Y Z