Song name
# A B C D E F G H I J K L M N O P Q R S T U V W X Y Z

Point Break - Freaty Time tab

Highlighted       Show chord diagrams
Point-Break
Freaky Time

                 G               D          Em       C
'Coz if your looking for a freaky time, freaky time baby
                 G       D            Em      D
You can always count on me, I'll be waiting
                 G               D          Em       C
If your looking for a freaky time, freaky time, baby
            G              D    C-D
You can always count on me, Yeah

G-D-Em-D
G-D-Em-D

     G
I wanna be the one you come home to
     D
I wanna be everything you need
     Em
Come on and lay your lips on mine
     D
I wanna be the one to set you free
     G
Come on and pull my body close
     D
I wanna lie you on the floor
     C
Come on and lay your lips on mine
     E
And let our bodies work for more


 C          G              C
B. U. M and P. G. R. I. N. D
 C                              D
Bump and Grind, Just be mine tonight

[rap]
So baby bring your aah over here just for a second
You're looking at me I reckon you're checkin'
Not respecting just what my intentions are
You want me all the way up, I want you half way down
I'm gonna lay down naked make you feel hotty
Every curve every swerve all over your body
Will not go undiscovered by the end of the night
Is a promise I will make so honey turn of the light


reapeat chords of churos
G-D-Em-C
'Coz if your looking for a freaky time, freaky time baby
You can always count on me, Yeah

Standard Chords from Music... dayjx

Tab

-----3-------3---|-----3-------2---|-----------------------------------------|
---5---5---5-----|---3---3---3-----|-----------------------------------------|
-5-------4-------|-0-------2-------|-----------------------------------------|
-----------------|-----------------|-----------------------------------------|
-----------------|-----------------|-----------------------------------------|
-----------------|-----------------|-----------------------------------------|

---3-2-3---3-2-3-|---3-2-3-2-3-5---|-----------------------------------------|
-----------------|---------3-----3-|-----------------------------------------|
-5-------4-------|-0---------------|-----------------------------------------|
-----------------|-----------------|-----------------------------------------|
-----------------|-----------------|-----------------------------------------|
-----------------|-----------------|-----------------------------------------|


--------------------------------------|------12-----10----10------|----------|
-8---8---8-8--------------------------|---12-----------12------12/|-8---8----|
---7---7-----10-7-10----10----10-10-9-|---------------------------|---7---7--|
---------------------10----10---------|---------------------------|----------|
--------------------------------------|---------------------------|----------|
--------------------------------------|---------------------------|----------|


------------------------------|-----------------|-15-------------17-|-18-----|
-8-8--------------------------|-----------------|-------------------|--------|
-----10-7-10----10----10-10-9-|-----------------|-------------------|--------|
-------------10----10---------|-----------------|-------------------|--------|
------------------------------|-----------------|-------------------|--------|
------------------------------|-----------------|-------------------|--------|


-17-18-17-18-17-|-15---------------------------------------------------------|
----------------|------------------------------------------------------------|
----------------|------------------------------------------------------------|
----------------|------------------------------------------------------------|
----------------|------------------------------------------------------------|
----------------|------------------------------------------------------------|

Point-Break Freaky Time
www.point-break.com
Tap to rate this tab
 
# A B C D E F G H I J K L M N O P Q R S T U V W X Y Z