Guitaretab - guitar tabs
Song name
# A B C D E F G H I J K L M N O P Q R S T U V W X Y Z

Poison Idea - Bounce The Rubble tab

-------------------------------------------------------------------------------
Bounce The Rubble - Poison Idea
Darby Crash Rides Again
-------------------------------------------------------------------------------
Tabbed by: axeslash
Email: holmzito@yahoo.com

Tuning: Standard

e|----------------------------------|     e|---------------------------------|
B|----------------------------------|     B|---------------------------------|
G|--------------5---------9----8----|     G|-5-5-5-5-7-7-7-7-----------------|
D|-5-5-6----7-7-5----5-6--9--8-8----|     D|-5-5-5-5-7-7-7-7-7-7-7-7-3-3-3-3-|
A|-5-5-6----7-7-3----5-6--7--8-6----|     A|-3-3-3-3-5-5-5-5-7-7-7-7-3-3-3-3-|
E|-3-3-4----5-5------3-4-----6------| x4  E|-----------------5-5-5-5-1-1-1-1-| x4

e|-----------------------------------------------------------------------------|
B|-----------------------------------------------------------------------------|
G|---------5--3--5----------5--3--5----------5--3--5--7-7-7-7-7-7-7-7-7--------|
D|-5-5-5-5-5--3--5--5-5-5-5-5--3--5--5-5-5-5-5--3--5--7-7-7-7-7-7-7-7-7--------|
A|-5-5-5-5-3--1--3--5-5-5-5-3--1--3--5-5-5-5-3--1--3--5-5-5-5-5-5-5-5-5--------|
E|-3-3-3-3----------3-3-3-3----------3-3-3-3-----------------------------------|
[ Tab from: http://www.guitaretab.com/p/poison-idea/110007.html ]
e|----------------------------------|     e|---------------------------------|
B|----------------------------------|     B|---------------------------------|
G|--------------5---------9----8----|     G|-5-5-5-5-7-7-7-7-----------------|
D|-5-5-6----7-7-5----5-6--9--8-8----|     D|-5-5-5-5-7-7-7-7-7-7-7-7-3-3-3-3-|
A|-5-5-6----7-7-3----5-6--7--8-6----|     A|-3-3-3-3-5-5-5-5-7-7-7-7-3-3-3-3-|
E|-3-3-4----5-5------3-4-----6------| x4  E|-----------------5-5-5-5-1-1-1-1-| x4

e|-----------------------------------------------------------------------------|
B|-----------------------------------------------------------------------------|
G|---------5--3--5----------5--3--5----------5--3--5--7-7-7-7-7-7-7-7-7--------|
D|-5-5-5-5-5--3--5--5-5-5-5-5--3--5--5-5-5-5-5--3--5--7-7-7-7-7-7-7-7-7--------|
A|-5-5-5-5-3--1--3--5-5-5-5-3--1--3--5-5-5-5-3--1--3--5-5-5-5-5-5-5-5-5--------|
E|-3-3-3-3----------3-3-3-3----------3-3-3-3-----------------------------------|

e|---------------------------------------------------------------------|
B|---------------------------------------------------------------------|
G|-8--7-7--7--------8--7-7--7--------8--7-7--7--------8--7-7--7--------|
D|-8--7-7--7--------8--7-7--7--------8--7-7--7--------8--7-7--7--------|
A|-6--5-5--5--------6--5-5--5--------6--5-5--5--------6--5-5--5--------|
E|---------------------------------------------------------------------|

Fade Out

e|----------------------------------------------|
B|----------------------------------------------|
G|-7--7-7--10--12-12-12------------8--10-8-10-8-|
D|-7--7-7--10--12-12-12-10--10-10--8--10-8-10-8-|
A|-5--5-5---8--10-10-10-10--10-10--6---8-6--8-6-|
E|-----------------------8---8--8---------------|

e|---------------------------------------|
B|---------------------------------------|
G|-7--7-7--5--3--3-3-----5--5-5----------|
D|-7--7-7--5--3--3-3--5--5--5-5--3-3-3-3-|
A|-5--5-5--3--1--1-1--5--3--3-3--3-3-3-3-|
E|--------------------3----------1-1-1-1-|


| /  slide up
| \  slide down
| h  hammer-on
| p  pull-off
| ~  vibrato
| +  harmonic
| x  Mute note
===============================================================================
Related for Bounce The Rubble tab
×
Bounce The Rubble