Song name
# A B C D E F G H I J K L M N O P Q R S T U V W X Y Z

Poison Idea - Castration tab

-------------------------------------------------------------------------------
Castration - Poison Idea
Darby Crash Rides Again
-------------------------------------------------------------------------------
Tabbed by: axeslash
Email: holmzito@yahoo.com

Tuning: Standard

e|---------------------------------------------------------|
B|---------------------------------------------------------|
G|-------------------------8-8-8-8-8-8-8-8-8-8-8-8-8-8-8-8-|
D|-6/7------7--6-7------7--8-8-8-8-8-8-8-8-8-8-8-8-8-8-8-8-|
A|-6/7------7--6-7------7--6-6-6-6-6-6-6-6-6-6-6-6-6-6-6-6-|
E|-4/5------5--4/5------5----------------------------------| x4

e|-----------------------------------------|
B|-----------------------------------------|
G|-----------------10-10-10-10-------------|
D|-9-9-9-9-8-8-9-9-10-10-10-10-10-10-10-10-|
A|-9-9-9-9-8-8-9-9--8--8--8--8-10-10-10-10-|
E|-7-7-7-7-6-6-7-7--------------8--8--8--8-| x4

e|---------------------------------------------------------|
B|---------------------------------------------------------|
G|-------------------------8-8-8-8-8-8-8-8-8-8-8-8-8-8-8-8-|
D|-6/7------7--6-7------7--8-8-8-8-8-8-8-8-8-8-8-8-8-8-8-8-|
A|-6/7------7--6-7------7--6-6-6-6-6-6-6-6-6-6-6-6-6-6-6-6-|
E|-4/5------5--4/5------5----------------------------------| x4

e|-----------------------------------------|
B|-----------------------------------------|
G|-----------------10-10-10-10-------------|
D|-9-9-9-9-8-8-9-9-10-10-10-10-10-10-10-10-|
A|-9-9-9-9-8-8-9-9--8--8--8--8-10-10-10-10-|
E|-7-7-7-7-6-6-7-7--------------8--8--8--8-| x4


| /  slide up
| \  slide down
| h  hammer-on
| p  pull-off
| ~  vibrato
| +  harmonic
| x  Mute note
===============================================================================
Tap to rate this tab
# A B C D E F G H I J K L M N O P Q R S T U V W X Y Z