Song name
# A B C D E F G H I J K L M N O P Q R S T U V W X Y Z

Poison Idea - Plastic Bomb tab

-------------------------------------------------------------------------------
Plastic Bomb - Poison Idea
Feel The Darkness
-------------------------------------------------------------------------------
Tabbed by: axeslash
Email: holmzito@yahoo.com

Tuning:

Guitar 1:
e|----------------------------------------------------------------------------|
B|---8-7--8-7-----------------------------------------------------------------|
G|-7----------7------8-7---8-7-----------------------------10-9----12-10-9----|
D|-----------------8-----8-----8------8-7---10p8-7------10------10------------|
A|----------------------------------8-----8--------8--------------------------|
E|----------------------------------------------------------------------------|
Guitar 2:
e|---------------------------------------------------|
B|---------------------------------------------------|
G|-7-7-7--------------------------------5-5-5--------|
D|-7-7-7--------8-8-8-------3-3-3-------5-5-5--------|
A|-5-5-5--------8-8-8-------3-3-3-------3-3-3--------|
E|--------------6-6-6-------1-1-1--------------------|

Guitar 1:
e|---------------------------------------------------------------------------------|
B|---8-7--8-7----------------------------------------------------------------------|
G|-7----------7------8-7---10-8-7--------------------------10-9----12-10-9---------|
D|-----------------8-----8-------------7h8-7---8-7------10------10---------10-7----|
A|-----------------------------------8-------8-----7-------------------------------|
E|---------------------------------------------------------------------------------|
Guitar 2:
e|--------------------------------------------------------------|
B|--------------------------------------------------------------|
G|-7-7-7---------------------------------5-5-5------------------|
D|-7-7-7--------8-8-8--------3-3-3-------5-5-5--------7---------|
A|-5-5-5--------8-8-8--------3-3-3-------3-3-3--------7---------|
E|--------------6-6-6--------1-1-1--------------------5---------|

Guitars 1 & 2:
e|------------------------------------------------------------|
B|------------------------------------------------------------|
G|------------------------------------------------------------|
D|-7-7--7--7-7-7-8-8--8--8-8-8-10-10--10-8-8--8-7-7--7--7-7-7-|
A|-7-7--7--7-7-7-8-8--8--8-8-8-10-10--10-8-6--8-7-7--7--7-7-7-|
E|-5-5--5--5-5-5-6-6--6--6-6-6--8--8---8-6-6--6-5-5--5--5-5-5-| x4

Guitars 1 & 2:
e|-----------------------------------------------------------------|
B|-----------------------------------------------------------------|
G|-----------------------------------------------------------------|
D|-----------------------------------------------------------------|
A|-0-0-0-0-0-0-0-0-1-1-1-1-1-1-1-1-3-3-3-3-1-1-1-1-0-0-0-0-0-0-0-0-|
E|[X-X-X-X-X-X-X-X-X-X-X-X-X-X-X-X-X-X-X-X-X-X-X-X-X-X-X-X-X-X-X-X]| x2

Guitars 1 & 2:
e|-----------------------------------------------------------------------------|
B|-----------------------------------------------------------------------------|
G|-7--7-7--7-7--7-7-7---------------------------------------5--5-5--5-5--5-5-5-|
D|-7--7-7--7-7--7-7-7-8--8-8--8-8--8-8-8-3--3-3--3-3--3-3-3-5--5-5--5-5--5-5-5-|
A|-5--5-5--5-5--5-5-5-8--8-8--8-8--8-8-8-3--3-3--3-3--3-3-3-3--3-3--3-3--3-3-3-|
E|--------------------6--6-6--6-6--6-6-6-1--1-1--1-1--1-1-1--------------------| x2

Guitar 1:
e|----------------------------------------------------|
B|------------------------------------9--------8------|
G|-7^--10-7^--10-8-7h8-5-5--5----6/10----7-5-8---5----|
D|----------------------------------------------------|
A|----------------------------------------------------|
E|----------------------------------------------------|
Guitar 2
e|------------------------------------------------------------|
B|------------------------------------------------------------|
G|------------------------------------------------------------|
D|-7-7--7--7-7-7-8-8--8--8-8-8-10-10--10-8-8--8-7-7--7--7-7-7-|
A|-7-7--7--7-7-7-8-8--8--8-8-8-10-10--10-8-6--8-7-7--7--7-7-7-|
E|-5-5--5--5-5-5-6-6--6--6-6-6--8--8---8-6-6--6-5-5--5--5-5-5-|

Guitar 1
e|-------------------------------------------------------------------------|
B|-10p8---10p8---10p8---10p8---10----11p9----11p9----11p9----11p9----11----|
G|------9------9------9------9------------10------10------10------10-------|
D|-------------------------------------------------------------------------|
A|-------------------------------------------------------------------------|
E|-------------------------------------------------------------------------|
Guitar 2
e|------------------------------|
B|------------------------------|
G|------------------------------|
D|-7-7--7--7-7-7-8-8--8--8-8-8--|
A|-7-7--7--7-7-7-8-8--8--8-8-8--|
E|-5-5--5--5-5-5-6-6--6--6-6-6--|

Guitar 1
e|---------------------------------------------------|
B|-13p11----13p11----13----11p9----11p9----11--10----|
G|-------12-------12------------10------10-----------|
D|---------------------------------------------------|
A|---------------------------------------------------|
E|---------------------------------------------------|
Guitar 2
e|--------------------------------|
B|--------------------------------|
G|--------------------------------|
D|-10-10--10-8-8--8-7-7--7--7-7-7-|
A|-10-10--10-8-6--8-7-7--7--7-7-7-|
E|--8--8---8-6-6--6-5-5--5--5-5-5-|

Guitars 1 & 2:
e|-----------------------------------------------------------------|
B|-----------------------------------------------------------------|
G|-----------------------------------------------------------------|
D|-----------------------------------------------------------------|
A|-0-0-0-0-0-0-0-0-1-1-1-1-1-1-1-1-3-3-3-3-1-1-1-1-0-0-0-0-0-0-0-0-|
E|[X-X-X-X-X-X-X-X-X-X-X-X-X-X-X-X-X-X-X-X-X-X-X-X-X-X-X-X-X-X-X-X]| x2

Guitars 1 & 2:
e|-----------------------------------------------------------------------------|
B|-----------------------------------------------------------------------------|
G|-7--7-7--7-7--7-7-7---------------------------------------5--5-5--5-5--5-5-5-|
D|-7--7-7--7-7--7-7-7-8--8-8--8-8--8-8-8-3--3-3--3-3--3-3-3-5--5-5--5-5--5-5-5-|
A|-5--5-5--5-5--5-5-5-8--8-8--8-8--8-8-8-3--3-3--3-3--3-3-3-3--3-3--3-3--3-3-3-|
E|--------------------6--6-6--6-6--6-6-6-1--1-1--1-1--1-1-1--------------------| x2

Guitar 1:
e|-10----12-13-12--12h13-10-------------------17----|
B|-----------------------------13----13-10-13-------|
G|--------------------------------------------------|
D|--------------------------------------------------|
A|--------------------------------------------------|
E|--------------------------------------------------| x2
Guitar 2:
e|-----------------------------------------------------------------------------|
B|-----------------------------------------------------------------------------|
G|-7--7-7--7-7--7-7-7---------------------------------------5--5-5--5-5--5-5-5-|
D|-7--7-7--7-7--7-7-7-8--8-8--8-8--8-8-8-3--3-3--3-3--3-3-3-5--5-5--5-5--5-5-5-|
A|-5--5-5--5-5--5-5-5-8--8-8--8-8--8-8-8-3--3-3--3-3--3-3-3-3--3-3--3-3--3-3-3-|
E|--------------------6--6-6--6-6--6-6-6-1--1-1--1-1--1-1-1--------------------| x2

Guitars 1 & 2:
e|------------------------------------------------------------|
B|------------------------------------------------------------|
G|------------------------------------------------------------|
D|-7-7--7--7-7-7-8-8--8--8-8-8-10-10--10-8-8--8-7-7--7--7-7-7-|
A|-7-7--7--7-7-7-8-8--8--8-8-8-10-10--10-8-6--8-7-7--7--7-7-7-|
E|-5-5--5--5-5-5-6-6--6--6-6-6--8--8---8-6-6--6-5-5--5--5-5-5-| x4

Guitars 1 & 2:
e|---------------------------------------|
B|---------------------------------------|
G|---------------------------------------|
D|-7--------8--------10----8----7--------|
A|-7--------8--------10----8----7--------|
E|-5--------6---------8----6----5--------| x2

Guitars 1 & 2:
e|-----------------------------------------------------------------|
B|-----------------------------------------------------------------|
G|-----------------------------------------------------------------|
D|-----------------------------------------------------------------|
A|-0-0-0-0-0-0-0-0-1-1-1-1-1-1-1-1-3-3-3-3-1-1-1-1-0-0-0-0-0-0-0-0-|
E|[X-X-X-X-X-X-X-X-X-X-X-X-X-X-X-X-X-X-X-X-X-X-X-X-X-X-X-X-X-X-X-X]| x2

Guitars 1 & 2:
e|-----------------------------------------------------------------------------|
B|-----------------------------------------------------------------------------|
G|-7--7-7--7-7--7-7-7---------------------------------------5--5-5--5-5--5-5-5-|
D|-7--7-7--7-7--7-7-7-8--8-8--8-8--8-8-8-3--3-3--3-3--3-3-3-5--5-5--5-5--5-5-5-|
A|-5--5-5--5-5--5-5-5-8--8-8--8-8--8-8-8-3--3-3--3-3--3-3-3-3--3-3--3-3--3-3-3-|
E|--------------------6--6-6--6-6--6-6-6-1--1-1--1-1--1-1-1--------------------| x2

Guitars 1 & 2:
e|------------------------------------------------------------|
B|------------------------------------------------------------|
G|------------------------------------------------------------|
D|-7-7--7--7-7-7-8-8--8--8-8-8-10-10--10-8-8--8-7-7--7--7-7-7-|
A|-7-7--7--7-7-7-8-8--8--8-8-8-10-10--10-8-6--8-7-7--7--7-7-7-|
E|-5-5--5--5-5-5-6-6--6--6-6-6--8--8---8-6-6--6-5-5--5--5-5-5-|

Guitars 1 & 2:
e|---------------------------------------|
B|---------------------------------------|
G|---------------------------------------|
D|-7--------8--------10----8----7--------|
A|-7--------8--------10----8----7--------|
E|-5--------6---------8----6----5--------|


| /  slide up
| \  slide down
| h  hammer-on
| p  pull-off
| ~  vibrato
| +  harmonic
| x  Mute note
===============================================================================
Tap to rate this tab
# A B C D E F G H I J K L M N O P Q R S T U V W X Y Z