Song name
# A B C D E F G H I J K L M N O P Q R S T U V W X Y Z

Poison Idea - Pure Hate tab

-------------------------------------------------------------------------------
Pure Hate - Poison Idea
Darby Crash Rides Again
-------------------------------------------------------------------------------
Tabbed by: axeslash
Email: holmzito@yahoo.com

Tuning: Standard

e|-----------------------------------------------------------------|
B|-----------------------------------------------------------------|
G|-----------------------------------------------------------------|
D|-7-7-7-7-7-7-7-7-7-7-7-7-7-7-7-7-7-7-7-7-7-7-7-7-7-7-7-7-7-7-7-7-|
A|-7-7-7-7-7-7-7-7-7-7-7-7-7-7-7-7-7-7-7-7-7-7-7-7-7-7-7-7-7-7-7-7-|
E|-5-5-5-5-5-5-5-5-5-5-5-5-5-5-5-5-5-5-5-5-5-5-5-5-5-5-5-5-5-5-5-5-| x6

e|-------------------------------------------------------|
B|-------------------------------------------------------|
G|-----------------6--6-6-6-6-6-6----9--8--7----9--8--7--|
D|-7-7-7-7-7-7-7-7-6--6-6-6-6-6-6-7--9--8--5-7--9--8--7--|
A|-7-7-7-7-7-7-7-7-4--4-4-4-4-4-4-7--7--6--5-7--7--6--5--|
E|-5-5-5-5-5-5-5-5----------------5----------5-----------| x4

e|--------------------------|
B|--------------------------|
G|--------------------------|
D|-7-7-7-7-7-7-7-7-7--------|
A|-7-7-7-7-7-7-7-7-7--------|
E|-5-5-5-5-5-5-5-5-5--------|

e|--------------------------------------------------------------------|
B|--------------------------------------------------------------------|
G|-----------------6--6-6-6-6-6-6-8--8--5----11-11--11-11-11-11-11-11-|
D|-7-7-7-7-7-7-7-7-6--6-6-6-6-6-6-8--8--5----11-11--11-11-11-11-11-11-|
A|-7-7-7-7-7-7-7-7-4--4-4-4-4-4-4-6--6--3-----9--9---9--9--9--9--9--9-|
E|-5-5-5-5-5-5-5-5----------------------------------------------------| x4

e|----------------------------------------------------------------------------|
B|----------------------------------------------------------------------------|
G|-8--8--5----12--12-12-12-12-12-12-8--8--5-----------------------------------|
D|-8--8--5----12--12-12-12-12-12-12-8--8--5----5--5-5-5-5-5-5-4-4-4-4-4-4-4-4-|
A|-6--6--3----10--10-10-10-10-10-10-6--6--3----5--5-5-5-5-5-5-4-4-4-4-4-4-4-4-|
E|---------------------------------------------3--3-3-3-3-3-3-2-2-2-2-2-2-2-2-|

e|-----------------------------------------------------------------|
B|-----------------------------------------------------------------|
G|-----------------------------------------------------------------|
D|-7-7-7-7-7-7-7-7-7-7-7-7-7-7-7-7-7-7-7-7-7-7-7-7-7-7-7-7-7-7-7-7-|
A|-7-7-7-7-7-7-7-7-7-7-7-7-7-7-7-7-7-7-7-7-7-7-7-7-7-7-7-7-7-7-7-7-|
E|-5-5-5-5-5-5-5-5-5-5-5-5-5-5-5-5-5-5-5-5-5-5-5-5-5-5-5-5-5-5-5-5-| x6

e|-------------------------------------------------------|
B|-------------------------------------------------------|
G|-----------------6--6-6-6-6-6-6----9--8--7----9--8--7--|
D|-7-7-7-7-7-7-7-7-6--6-6-6-6-6-6-7--9--8--5-7--9--8--7--|
A|-7-7-7-7-7-7-7-7-4--4-4-4-4-4-4-7--7--6--5-7--7--6--5--|
E|-5-5-5-5-5-5-5-5----------------5----------5-----------| x4

e|--------------------------|
B|--------------------------|
G|--------------------------|
D|-7-7-7-7-7-7-7-7-7--------|
A|-7-7-7-7-7-7-7-7-7--------|
E|-5-5-5-5-5-5-5-5-5--------|

e|--------------------------------------------------------------------|
B|--------------------------------------------------------------------|
G|-----------------6--6-6-6-6-6-6-8--8--5----11-11--11-11-11-11-11-11-|
D|-7-7-7-7-7-7-7-7-6--6-6-6-6-6-6-8--8--5----11-11--11-11-11-11-11-11-|
A|-7-7-7-7-7-7-7-7-4--4-4-4-4-4-4-6--6--3-----9--9---9--9--9--9--9--9-|
E|-5-5-5-5-5-5-5-5----------------------------------------------------| x4

e|------------------------------------------------------------------------------|
B|------------------------------------------------------------------------------|
G|-8--8--5----12--12-12-12-12-12-12-8--8--5-------------------------------------|
D|-8--8--5----12--12-12-12-12-12-12-8--8--5----5--5-5-5-5-5-5-4-4-4-4-4-4-4-4-7-|
A|-6--6--3----10--10-10-10-10-10-10-6--6--3----5--5-5-5-5-5-5-4-4-4-4-4-4-4-4-7-|
E|---------------------------------------------3--3-3-3-3-3-3-2-2-2-2-2-2-2-2-5-|


| /  slide up
| \  slide down
| h  hammer-on
| p  pull-off
| ~  vibrato
| +  harmonic
| x  Mute note
===============================================================================
Tap to rate this tab
 
# A B C D E F G H I J K L M N O P Q R S T U V W X Y Z