Song name
# A B C D E F G H I J K L M N O P Q R S T U V W X Y Z

Poison Idea - Thing Called Progress In My Headache tab

Help us improve GuitareTab! Take a short survey!
-------------------------------------------------------------------------------
Thing Called Progress/In My Headache - Poison Idea
Darby Crash Rides Again
-------------------------------------------------------------------------------
Tabbed by: axeslash
Email: holmzito@yahoo.com

Tuning: Standard

e|----------------------------|     e|---------------------------------|
B|----------------------------|     B|---------------------------------|
G|-7-7-7-7-7-7-7-7-5----4--5--|     G|-8-8-8-8-8-8-8-8-8-8-8-8-8-8-8-8-|
D|-7-7-7-7-7-7-7-7-5----4--5--|     D|-8-8-8-8-8-8-8-8-8-8-8-8-8-8-8-8-|
A|-5-5-5-5-5-5-5-5-3----2--3--|     A|-6-6-6-6-6-6-6-6-6-6-6-6-6-6-6-6-|
E|----------------------------| x2  E|---------------------------------| x2

e|----------------------------|     e|---------------------------------|
B|----------------------------|     B|---------------------------------|
G|-7-7-7-7-7-7-7-7-5----4--5--|     G|-8-8-8-8-8-8-8-8-8-8-8-8-8-8-8-8-|
D|-7-7-7-7-7-7-7-7-5----4--5--|     D|-8-8-8-8-8-8-8-8-8-8-8-8-8-8-8-8-|
A|-5-5-5-5-5-5-5-5-3----2--3--|     A|-6-6-6-6-6-6-6-6-6-6-6-6-6-6-6-6-|
E|----------------------------| x2  E|---------------------------------| x2

e|----------------------------|     e|---------------------------------|
B|----------------------------|     B|---------------------------------|
G|-7-7-7-7-7-7-7-7-5----4--5--|     G|-8-8-8-8-8-8-8-8-8-8-8-8-8-8-8-8-|
D|-7-7-7-7-7-7-7-7-5----4--5--|     D|-8-8-8-8-8-8-8-8-8-8-8-8-8-8-8-8-|
A|-5-5-5-5-5-5-5-5-3----2--3--|     A|-6-6-6-6-6-6-6-6-6-6-6-6-6-6-6-6-|
E|----------------------------| x2  E|---------------------------------| x2

e|----------------------------|     e|---------------------------------|
B|----------------------------|     B|---------------------------------|
G|-7-7-7-7-7-7-7-7-5----4--5--|     G|-8-8-8-8-8-8-8-8-8-8-8-8-8-8-8-8-|
D|-7-7-7-7-7-7-7-7-5----4--5--|     D|-8-8-8-8-8-8-8-8-8-8-8-8-8-8-8-8-|
A|-5-5-5-5-5-5-5-5-3----2--3--|     A|-6-6-6-6-6-6-6-6-6-6-6-6-6-6-6-6-|
E|----------------------------| x2  E|---------------------------------| x2

e|-------------------------|    e|---------------------------------|
B|-------------------------|    B|---------------------------------|
G|-6--7--6--7--6--7--6--7--|    G|-5-5-5-5-5-5-5-5-5-5-5-5-5-5-5-5-|
D|-6--7--6--7--6--7--6--7--|    D|-5-5-5-5-5-5-5-5-5-5-5-5-5-5-5-5-|
A|-4--5--4--5--4--5--4--5--|    A|-3-3-3-3-3-3-3-3-3-3-3-3-3-3-3-3-|
E|-------------------------| x2 E|---------------------------------| x2

e|-------------------------|    e|---------------------------------|
B|-------------------------|    B|---------------------------------|
G|-6--7--6--7--6--7--6--7--|    G|-5-5-5-5-5-5-5-5-5-5-5-5-5-5-5-5-|
D|-6--7--6--7--6--7--6--7--|    D|-5-5-5-5-5-5-5-5-5-5-5-5-5-5-5-5-|
A|-4--5--4--5--4--5--4--5--|    A|-3-3-3-3-3-3-3-3-3-3-3-3-3-3-3-3-|
E|-------------------------| x2 E|---------------------------------|

e|-----------------------------------------|
B|-----------------------------------------|
G|--------------------------3----4----5----|
D|-3----4----5----6----7----3----4----5----|
A|-3----4----5----6----7----1----2----3----|
E|-1----2----3----4----5-------------------|

e|----------------------------|     e|---------------------------------|
B|----------------------------|     B|---------------------------------|
G|-7-7-7-7-7-7-7-7-5----4--5--|     G|-8-8-8-8-8-8-8-8-8-8-8-8-8-8-8-8-|
D|-7-7-7-7-7-7-7-7-5----4--5--|     D|-8-8-8-8-8-8-8-8-8-8-8-8-8-8-8-8-|
A|-5-5-5-5-5-5-5-5-3----2--3--|     A|-6-6-6-6-6-6-6-6-6-6-6-6-6-6-6-6-|
E|----------------------------| x2  E|---------------------------------| x2

e|----------------------------|     e|---------------------------------|
B|----------------------------|     B|---------------------------------|
G|-7-7-7-7-7-7-7-7-5----4--5--|     G|-8-8-8-8-8-8-8-8-8-8-8-8-8-8-8-8-|
D|-7-7-7-7-7-7-7-7-5----4--5--|     D|-8-8-8-8-8-8-8-8-8-8-8-8-8-8-8-8-|
A|-5-5-5-5-5-5-5-5-3----2--3--|     A|-6-6-6-6-6-6-6-6-6-6-6-6-6-6-6-6-|
E|----------------------------| x2  E|---------------------------------| x2

e|----------------------------|     e|---------------------------------|
B|----------------------------|     B|---------------------------------|
G|-7-7-7-7-7-7-7-7-5----4--5--|     G|-8-8-8-8-8-8-8-8-8-8-8-8-8-8-8-8-|
D|-7-7-7-7-7-7-7-7-5----4--5--|     D|-8-8-8-8-8-8-8-8-8-8-8-8-8-8-8-8-|
A|-5-5-5-5-5-5-5-5-3----2--3--|     A|-6-6-6-6-6-6-6-6-6-6-6-6-6-6-6-6-|
E|----------------------------| x2  E|---------------------------------| x2

e|----------------------------|     e|---------------------------------|
B|----------------------------|     B|---------------------------------|
G|-7-7-7-7-7-7-7-7-5----4--5--|     G|-8-8-8-8-8-8-8-8-8-8-8-8-8-8-8-8-|
D|-7-7-7-7-7-7-7-7-5----4--5--|     D|-8-8-8-8-8-8-8-8-8-8-8-8-8-8-8-8-|
A|-5-5-5-5-5-5-5-5-3----2--3--|     A|-6-6-6-6-6-6-6-6-6-6-6-6-6-6-6-6-|
E|----------------------------| x2  E|---------------------------------| x2

e|-------------------------|    e|---------------------------------|
B|-------------------------|    B|---------------------------------|
G|-6--7--6--7--6--7--6--7--|    G|-5-5-5-5-5-5-5-5-5-5-5-5-5-5-5-5-|
D|-6--7--6--7--6--7--6--7--|    D|-5-5-5-5-5-5-5-5-5-5-5-5-5-5-5-5-|
A|-4--5--4--5--4--5--4--5--|    A|-3-3-3-3-3-3-3-3-3-3-3-3-3-3-3-3-|
E|-------------------------| x2 E|---------------------------------| x2

e|-------------------------|    e|---------------------------------|
B|-------------------------|    B|---------------------------------|
G|-6--7--6--7--6--7--6--7--|    G|-5-5-5-5-5-5-5-5-5-5-5-5-5-5-5-5-|
D|-6--7--6--7--6--7--6--7--|    D|-5-5-5-5-5-5-5-5-5-5-5-5-5-5-5-5-|
A|-4--5--4--5--4--5--4--5--|    A|-3-3-3-3-3-3-3-3-3-3-3-3-3-3-3-3-|
E|-------------------------| x2 E|---------------------------------|

e|-----------------------------------------|
B|-----------------------------------------|
G|--------------------------3----4----5----|
D|-3----4----5----6----7----3----4----5----|
A|-3----4----5----6----7----1----2----3----|
E|-1----2----3----4----5-------------------|

e|----------------------------|     e|------------------|
B|----------------------------|     B|------------------|
G|-7-7-7-7-7-7-7-7-5----4--5--|     G|-7----------------|
D|-7-7-7-7-7-7-7-7-5----4--5--|     D|-7----------------|
A|-5-5-5-5-5-5-5-5-3----2--3--|     A|-5----------------|
E|----------------------------| x3  E|------------------|

Tempo slows down right here.

e|-------------------------------|
B|-------------------------------|
G|-2-2-2-2-3-3-3-3---------------|
D|-2-2-2-2-3-3-3-3-4-4-4-4--4-4--|
A|-0-0-0-0-1-1-1-1-4-4-4-4--4-4--|
E|-----------------2-2-2-2--2-2--| x8

e|-------------------------------------------------|
B|-------------------------------------------------|
G|-2-2-2-2-2-2-2-2-2-2-2-2-2-2-2-2-3-3-3-3-3-3-3-3-|
D|-2-2-2-2-2-2-2-2-2-2-2-2-2-2-2-2-3-3-3-3-3-3-3-3-|
A|-0-0-0-0-0-0-0-0-0-0-0-0-0-0-0-0-1-1-1-1-1-1-1-1-|
E|-------------------------------------------------|

e|----------------------------------------------|
B|----------------------------------------------|
G|----------------------------------------------|
D|-5-5-5-6----4-4-4-5-----5-5-5-6----4-4-4-5----|
A|-5-5-5-6----4-4-4-5-----5-5-5-6----4-4-4-5----|
E|-3-3-3-4----2-2-2-3-----3-3-3-4----2-2-2-3----|

e|-------------------------------------------------|
B|-------------------------------------------------|
G|-2-2-2-2-2-2-2-2-2-2-2-2-2-2-2-2-3-3-3-3-3-3-3-3-|
D|-2-2-2-2-2-2-2-2-2-2-2-2-2-2-2-2-3-3-3-3-3-3-3-3-|
A|-0-0-0-0-0-0-0-0-0-0-0-0-0-0-0-0-1-1-1-1-1-1-1-1-|
E|-------------------------------------------------|

e|----------------------------------------------|
B|----------------------------------------------|
G|----------------------------------------------|
D|-5-5-5-6----4-4-4-5-----5-5-5-6----4-4-4-5----|
A|-5-5-5-6----4-4-4-5-----5-5-5-6----4-4-4-5----|
E|-3-3-3-4----2-2-2-3-----3-3-3-4----2-2-2-3----|

e|-------------------------------|
B|-------------------------------|
G|-2-2-2-2-3-3-3-3---------------|
D|-2-2-2-2-3-3-3-3-4-4-4-4--4-4--|
A|-0-0-0-0-1-1-1-1-4-4-4-4--4-4--|
E|-----------------2-2-2-2--2-2--| x8

e|-------------------------------------------------|
B|-------------------------------------------------|
G|-2-2-2-2-2-2-2-2-2-2-2-2-2-2-2-2-3-3-3-3-3-3-3-3-|
D|-2-2-2-2-2-2-2-2-2-2-2-2-2-2-2-2-3-3-3-3-3-3-3-3-|
A|-0-0-0-0-0-0-0-0-0-0-0-0-0-0-0-0-1-1-1-1-1-1-1-1-|
E|-------------------------------------------------|

e|----------------------------------------------|
B|----------------------------------------------|
G|----------------------------------------------|
D|-5-5-5-6----4-4-4-5-----5-5-5-6----4-4-4-5----|
A|-5-5-5-6----4-4-4-5-----5-5-5-6----4-4-4-5----|
E|-3-3-3-4----2-2-2-3-----3-3-3-4----2-2-2-3----|

e|-------------------------------------------------|
B|-------------------------------------------------|
G|-2-2-2-2-2-2-2-2-2-2-2-2-2-2-2-2-3-3-3-3-3-3-3-3-|
D|-2-2-2-2-2-2-2-2-2-2-2-2-2-2-2-2-3-3-3-3-3-3-3-3-|
A|-0-0-0-0-0-0-0-0-0-0-0-0-0-0-0-0-1-1-1-1-1-1-1-1-|
E|-------------------------------------------------|

e|----------------------------------------------|
B|----------------------------------------------|
G|----------------------------------------------|
D|-5-5-5-6----4-4-4-5-----5-5-5-6----4-4-4-5----|
A|-5-5-5-6----4-4-4-5-----5-5-5-6----4-4-4-5----|
E|-3-3-3-4----2-2-2-3-----3-3-3-4----2-2-2-3----|

e|-----------------2-2-2-2-----|     e|-----------------2-2-2-2--------2-2-2-2--|
B|-----------------2-2-2-2-----|     B|-----------------2-2-2-2--------2-2-2-2--|
G|-2-2-2-2-3-3-3-3-3-3-3-3-----|     G|-2-2-2-2-3-3-3-3-3-3-3-3--------3-3-3-3--|
D|-2-2-2-2-3-3-3-3-4-4-4-4-----|     D|-2-2-2-2-3-3-3-3-4-4-4-4--4-4-4-4-4-4-4--|
A|-0-0-0-0-1-1-1-1-4-4-4-4-----|     A|-0-0-0-0-1-1-1-1-4-4-4-4--4-4-4-4-4-4-4--|
E|-----------------2-2-2-2-----| x3  E|-----------------2-2-2-2--2-2-2-2-2-2-2--|


| /  slide up
| \  slide down
| h  hammer-on
| p  pull-off
| ~  vibrato
| +  harmonic
| x  Mute note
===============================================================================
Related for Thing Called Progress In My Headache tab