Song name
# A B C D E F G H I J K L M N O P Q R S T U V W X Y Z

Poison Idea - Underage tab

-------------------------------------------------------------------------------
Underage - Poison Idea
Darby Crash Rides Again
-------------------------------------------------------------------------------
Tabbed by: axeslash
Email: holmzito@yahoo.com

Tuning: Standard

e|-------------------------|
B|-------------------------|
G|-----------------5-------|
D|-7-7-7-7-7-7-7-7-5--5----|
A|-7-7-7-7-7-7-7-7-3--5----|
E|-5-5-5-5-5-5-5-5----3----| x8

e|--------------------------------------------------|
B|--------------------------------------------------|
G|-----------------7-----------------------7--6--5--|
D|-9-9-9-9-9-9-9-9-7--7----9-9-9-9-9-9-9-9-7--6--5--|
A|-9-9-9-9-9-9-9-9-5--7----9-9-9-9-9-9-9-9-5--4--3--|
E|-7-7-7-7-7-7-7-7----5----7-7-7-7-7-7-7-7----------| x2

e|-------------------------|
B|-------------------------|
G|-----------------5-------|
D|-7-7-7-7-7-7-7-7-5--5----|
A|-7-7-7-7-7-7-7-7-3--5----|
E|-5-5-5-5-5-5-5-5----3----| x8

e|--------------------------------------------------|
B|--------------------------------------------------|
G|-----------------7-----------------------7--6--5--|
D|-9-9-9-9-9-9-9-9-7--7----9-9-9-9-9-9-9-9-7--6--5--|
A|-9-9-9-9-9-9-9-9-5--7----9-9-9-9-9-9-9-9-5--4--3--|
E|-7-7-7-7-7-7-7-7----5----7-7-7-7-7-7-7-7----------| x2

e|----------------------------------------------------------|
B|----------------------------------------------------------|
G|-----------------5--------------------------5-------------|
D|-7-7-7-7-7-7-7-7-5--5----7-7-7-7-7-7-7-7-5--5--------9----|
A|-7-7-7-7-7-7-7-7-3--5----7-7-7-7-7-7-7-7-5--3--------9----|
E|-5-5-5-5-5-5-5-5----3----5-5-5-5-5-5-5-5-3-----------7----|

e|--------------------------|
B|--------------------------|
G|--------------------11----|
D|-9-9-9-9-9-9-9-9-7--11----|
A|-9-9-9-9-9-9-9-9-7---9----|
E|-7-7-7-7-7-7-7-7-5--------| x8

e|-------------------------|
B|-------------------------|
G|-----------------5-------|
D|-7-7-7-7-7-7-7-7-5--5----|
A|-7-7-7-7-7-7-7-7-3--5----|
E|-5-5-5-5-5-5-5-5----3----| x8

e|--------------------------------------------------|
B|--------------------------------------------------|
G|-----------------7-----------------------7--6--5--|
D|-9-9-9-9-9-9-9-9-7--7----9-9-9-9-9-9-9-9-7--6--5--|
A|-9-9-9-9-9-9-9-9-5--7----9-9-9-9-9-9-9-9-5--4--3--|
E|-7-7-7-7-7-7-7-7----5----7-7-7-7-7-7-7-7----------| x2

e|----------------------------------------------------------|
B|----------------------------------------------------------|
G|-----------------8-8-8-8-8-8-8-8-----------------6--3--4--|
D|-7-7-7-7-7-7-7-7-8-8-8-8-8-8-8-8-5-5-5-5-5-5-5-5-6--3--4--|
A|-7-7-7-7-7-7-7-7-6-6-6-6-6-6-6-6-5-5-5-5-5-5-5-5-4--1--2--|
E|-5-5-5-5-5-5-5-5-----------------3-3-3-3-3-3-3-3----------| x2

e|-------------------------------------------------------------------------------|
B|-------------------------------------------------------------------------------|
G|-----------------8-8-8-8-8-8-8-8-----------------6--3--4--6--3--4--6--3--4--3--|
D|-7-7-7-7-7-7-7-7-8-8-8-8-8-8-8-8-5-5-5-5-5-5-5-5-6--3--4--6--3--4--6--3--4--3--|
A|-7-7-7-7-7-7-7-7-6-6-6-6-6-6-6-6-5-5-5-5-5-5-5-5-4--1--2--4--1--2--4--1--2--1--|
E|-5-5-5-5-5-5-5-5-----------------3-3-3-3-3-3-3-3-------------------------------|


| /  slide up
| \  slide down
| h  hammer-on
| p  pull-off
| ~  vibrato
| +  harmonic
| x  Mute note
===============================================================================
Tap to rate this tab
# A B C D E F G H I J K L M N O P Q R S T U V W X Y Z