Song name
# A B C D E F G H I J K L M N O P Q R S T U V W X Y Z

Poison Idea - Young Lord tab

Help us improve GuitareTab! Take a short survey!
-------------------------------------------------------------------------------
Young Lord - Poison Idea
Darby Crash Rides Again
-------------------------------------------------------------------------------
Tabbed by: axeslash
Email: holmzito@yahoo.com

Tuning: Standard

e|-------------------|     e|------------------------------------|
B|-------------------|     B|------------------------------------|
G|----------6--------|     G|-11-10-9-8-10-9-8-7-----------------|
D|-3--------6--------|     D|-11-10-9-8-10-9-8-7-7-7-7-7-7-7-7-7-|
A|-3--------4--------|     A|--9--8-7-6--8-7-6-5-7-7-7-7-7-7-7-7-|
E|-1-----------------| x4  E|--------------------5-5-5-5-5-5-5-5-| x3

e|----------------------------------------------------|
B|----------------------------------------------------|
G|-11-10-9-8-10-9-8-7---------------------------------|
D|-11-10-9-8-10-9-8-7-5-5-5-5-5-5-5-5-4-4-4-4-4-4-4-4-|
A|--9--8-7-6--8-7-6-5-5-5-5-5-5-5-5-5-4-4-4-4-4-4-4-4-|
E|--------------------3-3-3-3-3-3-3-3-2-2-2-2-2-2-2-2-|

e|---------------------------------|
B|---------------------------------|
G|---------------------------------|
D|-3-3-3-3-3-3-3-3-3-3-3-3-3-3-3-3-|
A|-3-3-3-3-3-3-3-3-3-3-3-3-3-3-3-3-|
E|-1-1-1-1-1-1-1-1-1-1-1-1-1-1-1-1-|

e|-----------------------------------------|
B|-10-10-10-10-10-10-10-10-----------------|
G|-10-10-10-10-10-10-10-10-6-6-6-6-6-6-6-6-|
D|-10-10-10-10-10-10-10-10-6-6-6-6-6-6-6-6-|
A|-------------------------4-4-4-4-4-4-4-4-|
E|-----------------------------------------| x4

e|------------------------------------|
B|------------------------------------|
G|-11-10-9-8-10-9-8-7-----------------|
D|-11-10-9-8-10-9-8-7-7-7-7-7-7-7-7-7-|
A|--9--8-7-6--8-7-6-5-7-7-7-7-7-7-7-7-|
E|--------------------5-5-5-5-5-5-5-5-| x3

e|----------------------------------------------------|
B|----------------------------------------------------|
G|-11-10-9-8-10-9-8-7---------------------------------|
D|-11-10-9-8-10-9-8-7-5-5-5-5-5-5-5-5-4-4-4-4-4-4-4-4-|
A|--9--8-7-6--8-7-6-5-5-5-5-5-5-5-5-5-4-4-4-4-4-4-4-4-|
E|--------------------3-3-3-3-3-3-3-3-2-2-2-2-2-2-2-2-|

e|--------------------------------------------|
B|--------------------------------------------|
G|--------------------------------------------|
D|-3-3-3-3-3-3-3-3-3-3-3-3-3-3-3-3-3-3-3-3----|
A|-3-3-3-3-3-3-3-3-3-3-3-3-3-3-3-3-3-3-3-3----|
E|-1-1-1-1-1-1-1-1-1-1-1-1-1-1-1-1-1-1-1-1----|


| /  slide up
| \  slide down
| h  hammer-on
| p  pull-off
| ~  vibrato
| +  harmonic
| x  Mute note
===============================================================================
Related for Young Lord tab