Song name
# A B C D E F G H I J K L M N O P Q R S T U V W X Y Z

Poison Idea - Think Twice tab

-------------------------------------------------------------------------------
Think Twice - Poison Idea
Darby Crash Rides Again
-------------------------------------------------------------------------------
Tabbed by: axeslash
Email: holmzito@yahoo.com

Tuning: Standard

e|--------------|  e|-----------------------------------------------------------|
B|--------------|  B|-----------------------------------------------------------|
G|--------------|  G|---------------------------3-3-3-3-3-3-3-3-3-3-3-3-3-3-3-3-|
D|--------------|  D|-5--4-4--4-4--5--4-4--4-4--3-3-3-3-3-3-3-3-3-3-3-3-3-3-3-3-|
A|-5------------|  A|-5--4-4--4-4--5--4-4--4-4--1-1-1-1-1-1-1-1-1-1-1-1-1-1-1-1-|
E|-3------------|  E|-3--2-2--2-2--3--2-2--2-2----------------------------------| x4

e|-----------------------------------------------------------|
B|-----------------------------------------------------------|
G|-----------------------------------------------------------|
D|-5--4-4--4-4--5--4-4--4-4--2-2-2-2-2-2-2-2-2-2-2-2-2-2-2-2-|
A|-5--4-4--4-4--5--4-4--4-4--2-2-2-2-2-2-2-2-2-2-2-2-2-2-2-2-|
E|-3--2-2--2-2--3--2-2--2-2--0-0-0-0-0-0-0-0-0-0-0-0-0-0-0-0-| x4

e|-----------------------------------------------------------|
B|-----------------------------------------------------------|
G|---------------------------3-3-3-3-3-3-3-3-3-3-3-3-3-3-3-3-|
D|-5--4-4--4-4--5--4-4--4-4--3-3-3-3-3-3-3-3-3-3-3-3-3-3-3-3-|
A|-5--4-4--4-4--5--4-4--4-4--1-1-1-1-1-1-1-1-1-1-1-1-1-1-1-1-|
E|-3--2-2--2-2--3--2-2--2-2----------------------------------| x4

e|-----------------------------------------------------------|
B|-----------------------------------------------------------|
G|-----------------------------------------------------------|
D|-5--4-4--4-4--5--4-4--4-4--2-2-2-2-2-2-2-2-2-2-2-2-2-2-2-2-|
A|-5--4-4--4-4--5--4-4--4-4--2-2-2-2-2-2-2-2-2-2-2-2-2-2-2-2-|
E|-3--2-2--2-2--3--2-2--2-2--0-0-0-0-0-0-0-0-0-0-0-0-0-0-0-0-| x3

e|--------------------------------|
B|--------------------------------|
G|--------------------------------|
D|-5--4-4--4-4--5--4-4--4-4--2----|
A|-5--4-4--4-4--5--4-4--4-4--2----|
E|-3--2-2--2-2--3--2-2--2-2--0----|


| /  slide up
| \  slide down
| h  hammer-on
| p  pull-off
| ~  vibrato
| +  harmonic
| x  Mute note
===============================================================================
Tap to rate this tab
# A B C D E F G H I J K L M N O P Q R S T U V W X Y Z